Mcfly - If U C Kate tab

Hello here's a little tab for the version played by Danny jones, which you can see here 
http://www.youtube.com/watch?v=Sd903poSWQU
Really nice song, although Danny uses a slide it's do-able to play it without one and it
still sounds allright.

Tuning: C# - F# - C# - F - G# - C#
So tune everything down a bit
Intro
C# ---- 14/16-14-14/16---14/16-14-14/16-|
F# -------------------------------------|
C# -------------------------------------|
F| -------------------------------------|
G# -------------------------------------|
C# -------------------------------------|

C# -------------------------------------|
F# -------------------------------------|
C# -------------------------------------|
F| -------------------------------------|
G# -2/4------4h0-4/6--------------------|
C# --------0----------------------------|




Verse
C# ---0-------0-------0--------0--|
F# ----0-------0-------0--------0-|
C# -------------------------------|
F| -------------------------------|
G# -------------------------------|
C# -0-------0--------0-------0----| repeat a few times

C# ---0------0----0----0----------|
F# ----0------0----0----0---------|
C# -------------------------------|
F| -------------------------------|
G# -------------------------------|
C# -5-----5-----7----7------------|

thats about it :P should help you on your way though! figure the rest out yourself cause
i'm too noob for it :)
Tap to rate this tab
 
# A B C D E F G H I J K L M N O P Q R S T U V W X Y Z