Mcfly - Ill Be Your Man tab

Artist: McFly
Album: Above the Noise
Song: I'll Be Your Man 

Standard Tuning


s - slide
h - hold


e|--------------------------------0-------------------------------------------|
b|--------------------------------0-------------------------------7h5-7-9-7s5-|
g|--------------------------------2----------------------------4--------------|
d|------------------------------2-2-----------2-4-2---------------------------|
a|----------2-4--2-------------0--0--------2-4---4----4-2-0-------------------|
E|------2-4----4-----4-2-0--------0-------------------------------------------|


e|--------------------------------------------------------------------------|
b|-----------10-10-10-10s9-9-9-9s7-7-7-7s5-5-5-5s10-10-10-10s9-9-9-9-7-7-7--|
g|---6----------------------------------------------------------------------|
d|--------------------------------------------------------------------------|
a|--------------------------------------------------------------------------|
E|--------------------------------------------------------------------------|


e|--------------------------------------------------------------------------|
b|-7s5-5-5-5---4-5-4---4-5-4------------------------------------------------|
g|------------------4h-------6h---------------------------------------------|
d|--------------------------------------------------------------------------|
a|--------------------------------------------------------------------------|
E|--------------------------------------------------------------------------|
Tap to rate this tab
 
# A B C D E F G H I J K L M N O P Q R S T U V W X Y Z