Song name
# A B C D E F G H I J K L M N O P Q R S T U V W X Y Z

Mcfly - I Need A Woman tab

Mcfly - I Need A Woman

Standard Tuning: EADGBe


Main Riff

e|------------------|
B|------------------|
G|------------------|
D|------------------|
A|-----------3------|
E|-1-----3/5---3-5--|

Verse Variation (after main riff 4 times)

e|-----------------|
B|-----------------|
G|-----------------|
D|-----------3-----|
A|-1-----3/5---3-5-|
E|-----------------|

Bar before Pre-Chorus

e|-----------------|
B|-----------------|
G|-----------3-3-3-|
D|-----------3-3-3-|
A|-----------1-1-1-|
E|-1-----3/5-------|


Pre-chorus

e|---------|-------------------|---------|-------------------|
B|---------|-------------------|---------|-------------------|
G|-5-------|-(5)---------3-3-3-|-5-------|-(5)---------3-3-3-|
D|-5-------|-(5)---------3-3-3-|-5-------|-(5)---------3-3-3-|
A|-3-------|-(3)---------1-1-1-|-3-------|-(3)---------1-1-1-|
E|---------|-------------------|---------|-------------------|

e|-----------------|-----------------|-----------------|------------------|
B|-----------------|-----------------|-----------------|------------------|
G|-5---------3-3-3-|-5---------3-3-3-|-5-5-5-5-5-5-5-5-|-5-5-5-5-5-5-5-5--|
D|-5---------3-3-3-|-5---------3-3-3-|-5-5-5-5-5-5-5-5-|-5-5-5-5-5-5-5-5--|
A|-3---------1-1-1-|-3---------1-1-1-|-3-3-3-3-3-3-3-3-|-3-3-3-3-3-3-3-3--|
E|-----------------|-----------------|-----------------|------------------|

Chorus

e|-----------------|-----------------|-----------------|------------------|
B|-----------------|-----------------|-1-1-1-1-1-1-1-1-|-1-1-1-1-1-1-1-1--|
G|-2-2-2-2-2-2-2-2-|-2-2-2-2-2-2-2-2-|-2-2-2-2-2-2-2-2-|-2-2-2-2-2-2-2-2--|
D|-3-3-3-3-3-3-3-3-|-3-3-3-3-3-3-3-3-|-2-2-2-2-2-2-2-2-|-2-2-2-2-2-2-2-2--|
A|-3-3-3-3-3-3-3-3-|-3-3-3-3-3-3-3-3-|-0-0-0-0-0-0-0-0-|-0-0-0-0-0-0-0-0--|
E|-1-1-1-1-1-1-1-1-|-1-1-1-1-1-1-1-1-|-----------------|------------------|

e|-----------------|-----------------|-----------------|------------------|
B|-3-3-3-3-3-3-3-3-|-----------------|-5-5-5-5-5-5-5-5-|-5-5-5-5-5-5-5-5--|
G|-3-3-3-3-3-3-3-3-|-2-2-2-2-2-2-2-2-|-5-5-5-5-5-5-5-5-|-5-5-5-5-5-5-5-5--|
D|-3-3-3-3-3-3-3-3-|-3-3-3-3-3-3-3-3-|-5-5-5-5-5-5-5-5-|-5-5-5-5-5-5-5-5--|
A|-1-1-1-1-1-1-1-1-|-3-3-3-3-3-3-3-3-|-3-3-3-3-3-3-3-3-|-3-3-3-3-3-3-3-3--|
E|-----------------|-1-1-1-1-1-1-1-1-|-----------------|------------------|


************************************

| /   slide up
| \   slide down
| h   hammer-on
| p   pull-off
| ~   vibrato
| +   harmonic
| x   Mute note
| b   Bend
| pb  Pre-bend
| br  Bend release
| pbr Pre-bend release
| brb Bend release bend

************************************
Tap to rate this tab
 
# A B C D E F G H I J K L M N O P Q R S T U V W X Y Z