Song name
# A B C D E F G H I J K L M N O P Q R S T U V W X Y Z

Mcfly - Falling In Love tab

Hey, this is my first tab, so go easy on me, ok, I'm trying my best xD
In this one, I'll be just tabbing Danny's guitar.

Danny plays these chords in the acoustic guitar, with an alternative tuning, as he 
shows in this video: http://www.youtube.com/watch?v=5ImtRdoi_qs
So I guess this tab is correct.

In the acoustic version, they don't use a capo, although in the studio version, 
there is a capo fret 1, do whatever you want, anyway, this tab is not relative to the capo.
Enjoy it.

Tuning: eAF#EAD


(INTRO)

e |-0--0-0-0-0--0-0-0-0| 
A |-4--4-2-4-5--4-2-4-0|
F#|-3--3-3-3-3--3-3-3-3|
E |-0--0-0-0-0--0-0-0-0|
A |-0--0-0-0-0--0-0-0-0|
D |-x--x-x-x-x--x-x-x-x|

Plays this riff twice, then keep playing this chord:

e |-0-|
A |-0-|
F#|-0-|
E |-0-|
A |-4-|
D |-4-|


(VERSE 1)

   "Everyday feels...   ...now I've, gotta...    ...I could be...
e |-0--------------------------0--------------------0--------------|
A |-4--------------------------0--------------------4--------------|
F#|-3--------------------------0--------------------0--------------|
E |-0--------------------------0--------------------5--------------|
A |-0--------------------------4--------------------5--------------|
D |-x--------------------------4--------------------x--------------|

   "I could've fallen in love,I wish I'd fallen in love" 
e |------------0--0-0-0-0--0-0-0-0--0-0-0-0--0-0-0-0-----|
A |------------4--4-2-4-5--4-2-4-0--4-2-4-5--4-2-4-0-----|
F#|------------3--3-3-3-3--3-3-3-3--3-3-3-3--3-3-3-3-----|
E |------------0--0-0-0-0--0-0-0-0--0-0-0-0--0-0-0-0-----|
A |------------0--0-0-0-0--0-0-0-0--0-0-0-0--0-0-0-0-----|
D |------------x--x-x-x-x--x-x-x-x--x-x-x-x--x-x-x-x-----|


(PRE-CHORUS)

  "Out of our minds, and out of time, wishing I could be with you..." 
e |-0---------0-----------------0-----------------------------0------|
A |-0---------0-----------------0-----------------------------4------|
F#|-0---------2-----------------0-----------------------------0------|
E |-2---------0-----------------0-----------------------------5------|
A |-x---------x-----------------4-----------------------------5------|
D |-2---------2-----------------4-----------------------------x------|

  "... and to share the view, oh, we could've fallen in love"
e |---------------------0-----------------------------------|
A |---------------------0-----------------------------------|
F#|---------------------2-----------------------------------|
E |---------------------0-----------------------------------|
A |---------------------x-----------------------------------|
D |---------------------2-----------------------------------|


(CHORUS)

   "Whoah oh oh oh, whoa oh oh oh, whoa oh oh oh, whoa oh oh oh"
e |-0--0-0-0-0--0-0-0-0--0-0-0-0--0-0-0-0----------------------|
A |-4--4-2-4-5--4-2-4-0--4-2-4-5--4-2-4-0----------------------|
F#|-3--3-3-3-3--3-3-3-3--3-3-3-3--3-3-3-3----------------------|
E |-0--0-0-0-0--0-0-0-0--0-0-0-0--0-0-0-0----------------------|
A |-0--0-0-0-0--0-0-0-0--0-0-0-0--0-0-0-0----------------------|
D |-x--x-x-x-x--x-x-x-x--x-x-x-x--x-x-x-x----------------------|


(VERSE 2)

   "Waking up..          ..now I realize..        ..everyday should be.." 
e |-0--------------------------0--------------------0-----------------|
A |-4--------------------------0--------------------4-----------------|
F#|-3--------------------------0--------------------0-----------------|
E |-0--------------------------0--------------------5-----------------|
A |-0--------------------------4--------------------5-----------------|
D |-x--------------------------4--------------------x-----------------|


         "..of falling in love, I could've fallen in love"
e |------------0--0-0-0-0--0-0-0-0--0-0-0-0--0-0-0-0-----|
A |------------4--4-2-4-5--4-2-4-0--4-2-4-5--4-2-4-0-----|
F#|------------3--3-3-3-3--3-3-3-3--3-3-3-3--3-3-3-3-----|
E |------------0--0-0-0-0--0-0-0-0--0-0-0-0--0-0-0-0-----|
A |------------0--0-0-0-0--0-0-0-0--0-0-0-0--0-0-0-0-----|
D |------------x--x-x-x-x--x-x-x-x--x-x-x-x--x-x-x-x-----|


(PRE-CHORUS)

  "Out of our minds, and out of time, wishing I could be with you..." 
e |-0---------0-----------------0-----------------------------0------|
A |-0---------0-----------------0-----------------------------4------|
F#|-0---------2-----------------0-----------------------------0------|
E |-2---------0-----------------0-----------------------------5------|
A |-x---------x-----------------4-----------------------------5------|
D |-2---------2-----------------4-----------------------------x------|

  "... and to share the view, oh, we could've fallen in love"
e |---------------------0-----------------------------------|
A |---------------------0-----------------------------------|
F#|---------------------2-----------------------------------|
E |---------------------0-----------------------------------|
A |---------------------x-----------------------------------|
D |---------------------2-----------------------------------|


(CHORUS)

   "Whoah oh oh oh, whoa oh oh oh, whoa oh oh oh, whoa oh oh oh"
e |-0--0-0-0-0--0-0-0-0--0-0-0-0--0-0-0-0----------------------|
A |-4--4-2-4-5--4-2-4-0--4-2-4-5--4-2-4-0----------------------|
F#|-3--3-3-3-3--3-3-3-3--3-3-3-3--3-3-3-3----------------------|
E |-0--0-0-0-0--0-0-0-0--0-0-0-0--0-0-0-0----------------------|
A |-0--0-0-0-0--0-0-0-0--0-0-0-0--0-0-0-0----------------------|
D |-x--x-x-x-x--x-x-x-x--x-x-x-x--x-x-x-x----------------------|

   "whoa, we could've fallen in love, whoa oh oh oh, whoa oh oh oh..."
e |-----------------------------0------------------------------------|
A |-----------------------------0------------------------------------|
F#|-----------------------------0------------------------------------|
E |-----------------------------0------------------------------------|
A |-----------------------------4------------------------------------|
D |-----------------------------4------------------------------------|


(INSTRUMENTAL PART)
This part is composed by these chords

e |-0-------0-------0--------0------|
A |-0-------0-------0--------4------|
F#|-0-------2-------0--------3------|
E |-2-------0-------0--------0------|
A |-x-------x-------4--------0------|
D |-2-------2-------4--------x------|

Play this twice and then keep playing these chords:

e |-0---------------0---------------|
A |-4---------------0---------------|
F#|-0---------------2---------------|
E |-5---------------0---------------|
A |-5---------------x---------------|
D |-x---------------2---------------|


(BRIDGE/OUTRO)
  
   "Sick of waiting...       ...I can't take another night..."       
e |-0---------------------------0----------------------------|
A |-4---------------------------0----------------------------|
F#|-3---------------------------0----------------------------|
E |-0---------------------------0----------------------------|
A |-0---------------------------4----------------------------|
D |-x---------------------------4----------------------------|
    . . . . . . . . . . . . . . . . . . . . . . . . . . . . .

   "She said whoa oh oh, whoa oh oh, whoa oh oh, whoa oh oh oh
e |----------0-----------------------0------------------------|
A |----------4-----------------------4------------------------|
F#|----------0-----------------------3------------------------|
E |----------5-----------------------0------------------------|
A |----------5-----------------------0------------------------|
D |----------x-----------------------x------------------------|

Play this till the end, and there will be some harmonics and it's done:

e |----------------------------------------------------------------|
A |-------7*-------------7*-------------7*--------------12*--------|
F#|-----7*--7*---------7*--7*---------7*--7*----------12*--12*-----|
E |---7*------7*-----7*------7*-----7*------7*-----12*--------12*--|
A |-7*-------------7*-------------7*-------------12*---------------|
D |----------------------------------------------------------------|
Tap to rate this tab
# A B C D E F G H I J K L M N O P Q R S T U V W X Y Z