Song name
# A B C D E F G H I J K L M N O P Q R S T U V W X Y Z

Mcfly - No Worries tab

This is the acoustic version of Mcfly’s song No Worries. Tom plays the intro without a 
capo (I tried to make it as close as I could to their version) and Danny plays the chords 
on capo 5 ! heres the link to this version!

http://www.youtube.com/watch?v=eUyUFJ7stFg

In the brackets in the chorus is what Tom plays along with danny or in other words the 
chord without the capo! if you wanna play without a capo the whol song the chord 
transitions will be at the bottom!

Sorry for any confusion :/



|---------------------------------------------------------|
|--5s7---5---4---2------0h2----4----5—5s7-----------------|
|---------------------------------------------------------|
|---------------------------------------------------------|
|---------------------------------------------------------|
|---------------------------------------------------------|

|---------------------------------------------------------|
|--5---4---2---0h2---4---5---4----------------------------|
|--------------------------------------4---------6---4----|
|-------------------------------------------4-------------|
|---------------------------------------------------------|
|---------------------------------------------------------|

|-------------------------------------------------------|
|-------------------------------------------------------|
|--3-----3--4---6s8----6----4---------------------------|
|-----6-------------------------------------------------|
|-------------------------------------------------------|
|-------------------------------------------------------|

|-------------------------------------------------------|
|--5s7---5---4---2------0h2----4----5—5s7---------------|
|-------------------------------------------------------|
|-------------------------------------------------------|
|-------------------------------------------------------|
|-------------------------------------------------------|

|-------------------------------------------------------|
|--5---4---2---0h2---4---5---4--------------------------|
|--------------------------------4---------6---4--------|
|--------------------------------------4----------------|
|-------------------------------------------------------|
|-------------------------------------------------------|

|-------------------------------------------------------|
|-------------------------------------------------------|
|--3-----3--4---6s8---6s8---8---6----4------------------|
|-----6-------------------------------------------------|
|-------------------------------------------------------|
|-------------------------------------------------------|

G                                 D
We ran past strawberry fields and smelt the summertime
Em                               C             D
When it gets dark I'll hold your body next to mine
G                                 D
And then we'll find some wood and hell we'll build a fire
Em                                C               D
And then we'll find some rope and make a swinging tire

C                         D
Captivated by the way you look
G            D         Em     D       A
Tonight the light is dancing in your eyes
             C   D
Your sweet eyes

                       G(B)   D(F#/Gb)
Times like these we'll never forget
               C(E)      D(F#/Gb)
Staying out to watch the sunset
Em(G#m)     D(F#/Gb)        C(E) D(F#/Gb)
I'm glad I shared this with you
       G(B)   D(F#/Gb)
Cause you set me free
                   C(E)      D(F#/Gb)
Showed me how good my life could be
Em(G#m)       D(F#/Gb) Cm(F)
How did this happen to me
Cm(F)
Yeah, aww

G                             D
And then I'll swing you girl until you fall asleep
Em                           C            D
When you wake up you'll be lying next to me
G                           D
We'll go to Hollywood, make you a movie star
Em                              C           D
I want the world to know how beautiful you are

C                         D
Captivated by the way you look
G            D         Em     D       A
Tonight the light is dancing in your eyes
             C   D
Your sweet eyes

                       G(B)   D(F#/Gb)
Times like these we'll never forget
               C(E)      D(F#/Gb)
Staying out to watch the sunset
Em(G#m)     D(F#/Gb)        C(E) D(F#/Gb)
I'm glad I shared this with you
       G(B)   D(F#/Gb)
Cause you set me free
                   C(E)      D(F#/Gb)
Showed me how good my life could be
Em(G#m)       D(F#/Gb) Cm(F)
How did this happen to me
Cm(F)
Yeah, aww


G      D       Em     D      A
There are no secrets to be told
C             D             G
Nothing you don't already know
G       Em
Bum Bum Bum
Em                            A
We've got no fears of growing old
C               D
We've got no worries in the world

Toms chords-
  B   E   C#  F#/Gb
|-7---7---9----9--|
|-7---9---9----11-|
|-8---9---10---11-|
|-9---9---11---11-|
|-9---7---11---9--|
|-7---x---9----x--|

G(B)
Ba Ba Ba Da Ba Ba Da
C(E)     A(C#)        D(F#/Gb)
Ba Ba Ba Da Ba Ba Da Baa Ba Da Ba
(Repeat for hoever long they retardedly sing this part)

G                       G
Ending


Capo 5 to no capo(If you wanna play it toms way the whole song)

G = B
D = F#/Gb
C = E
Em = G#m
Cm = F
A = C#
Tap to rate this tab
 
# A B C D E F G H I J K L M N O P Q R S T U V W X Y Z