Song name
# A B C D E F G H I J K L M N O P Q R S T U V W X Y Z

Mcfly - I Wanna Hold You tab

Intro:
|-3-3--3------3-3-3------3-3--3-----------6------8---|
|-3-3--3-6-5--3-3-3-6-5--3-3--3-6-5~------6------8---|
|-------------------------------------6h7----8h9-----|
|----------------------------------------------------|
|----------------------------------------------------|
|----------------------------------------------------|

|-3-3------3-3-3------3-3--3---------------------------|
|-3-3-6-5--3-3-3-6-5--3-3--3-6-5~----------------------|
|----------------------------------3-3-3---5-5-5-------|
|----------------------------------3-3-3---5-5-5--5----|
|----------------------------------1-1-1---3-3-3--5----|
|-------------------------------------------------3----|

G                             F
Tell me that you want me baby
G                      F
Tell me that it's true
G
Say the magic words
           Bb         C        G   F
And I'd destroy the world for you
G                              F
An army for the broken-hearted
G                         F
March through the streets
G
And every city's burning
         Bb     C          G           
To the ground under your feet

D
I wanna hold you
Bm                     Em
My skies are turning black
                    G  A
Feels like a heart attack

|---------------|
|-5--3--2-2-2---|
|-4--2--2-2-2---|
|---------------|
|---------------|
|---------------|
     G                   A
And I'd do anything you ask
                  D
I wanna hold you bad

G                            F
Melt the polar ice caps baby
G                          F
Watch them flood the earth
G
And I'd do anything to show you
Bb          C       G   F
What your love is worth
G                                      F
So why don't you show me your devotion
G                       F
To heal my aching heart
G
It's like a neutron bomb explosion
Bb      C    G
Tearing me apart

D
I wanna hold you
Bm                     Em
My skies are turning black
                    G  A
Feels like a heart attack

|---------------|
|-5--3--2-2-2---|
|-4--2--2-2-2---|
|---------------|
|---------------|
|---------------|
     G                   A
And I'd do anything you ask
                  D
I wanna hold you bad

D           Bm
Attention please
                     E
We interrupt this program
                     A
For some disturbing news
                 D
A worldwide evacuation
                Bm
We're going to lose
                         E
And they pulverize the nation
               G   
I guess this shows us
G                    E
Just what love could do

Guitar Solo:             hold bend      release
|----------------------------/---------------------------------|
|---------------------------/----------------------------------|
|----3-5-5b7==---5b7==-5b7==-[5][5]--------5pbr7--5-5---3~~----|
|--5-----------------------------------------------------------|
|--------------------------------------------------------------|
|--------------------------------------------------------------|

|---------------------------------------------------|
|---------------------------------------------------|
|-------------------------------------3-3-3-5-5-5---|
|-------------------------3-3-3-5-5-5---------------|
|-------------3-3-3-5-5-5---------------------------|
|-3-3-3-6-6-6---------------------------------------|

|-------------3-3-3--6--6b==6.5---------------------|
|-3-3-3-6-6-6---------------------------------------|
|---------------------------------------------------|
|---------------------------------------------------|
|---------------------------------------------------|
|---------------------------------------------------|

|-13-----13-----13-----13-----13-----13-----13------|
|-13b15--13b15--13b15--13b15--13b15--13b15--13b15---|
|---------------------------------------------------|
|---------------------------------------------------|
|---------------------------------------------------|
|---------------------------------------------------|

|-13-----13-----------------------|
|-13b15--13b15------11--10--11----|
|-------------------12--12--12----|
|---------------------------------|
|---------------------------------|
|---------------------------------|

|----------15-----------------15-----------------15---------|
|-------15----18p15--------15----18p15--------15----18p15---|
|-17b19--------------17b19--------------17b19---------------|
|-----------------------------------------------------------|
|-----------------------------------------------------------|
|-----------------------------------------------------------|

|----------15-------18p15-----------------------------------|
|-------15----18p15-------18p15-18p15-18p15-18p15-----------|
|-17b19-------------------------------------------17p15-----|
|-------------------------------------------------------17\-|
|-----------------------------------------------------------|
|-----------------------------------------------------------|

D
I wanna hold you
Bm                     Em
My skies are turning black
                    G  A
Feels like a heart attack

Play after (heart attack...)
|---------------|
|-5--3--2-2-2---|
|-4--2--2-2-2---|
|---------------|
|---------------|
|---------------|
     G                   A
And I'd do anything you ask
                  D        Bm  A
I wanna hold you bad, bad, bad
G                    A
I'd do anything you ask
                  D
I wanna hold you bad

Ending Riff: (2:42)
|-10-10--------10-10--------10-10--10--------10-10--13-10-|
|-10-10-13-12--10-10-13-12--10-10--10-13-12--10-10--------|
|---------------------------------------------------------|
|---------------------------------------------------------|
|---------------------------------------------------------|
|---------------------------------------------------------|
Tap to rate this tab
# A B C D E F G H I J K L M N O P Q R S T U V W X Y Z