Song name
# A B C D E F G H I J K L M N O P Q R S T U V W X Y Z

Mcfly - End Of The World tab

Band: McFly
Song: End Of The World
Album: Above The Noise
tabbed by black_guitar52


Verse 1 And PRE-Chorus:

I thought I saw something moving...
E|-------------------------------------|
B|-------------------------------------|
G|-------------------------------------|
D|-------------------------------------|
A|------3-3-3---------5----------------|
E|--------------3---5------------------|


I really think this could be the end of the world...
E|---3--3------3--3----3------------|
B|---3--3------3--3----3------------|
G|---3--3------3--3----3------------|
D|---5--5------5--5----5------------|
A|---5--5------5--5----5------------|
E|---3--3------3--3----3------------|

Chorus:

It's the end...The skys fallin' down...
E|----8--8--8---8--x---8--8--8---8--x------------|
B|----9--9--8---9--x---9--9--8---9--x------------|
G|---10-10--8--10--x--10-10--8--10--x------------|
D|---10-10--8--10--x--10-10--8--10--x------------|
A|-----------------------------------------------|
E|-----------------------------------------------|


The end...So gays grap the girls...
E|------4-4---4--4--x--4-4---4--4--x---------|
B|------5-5---4--5--x--5-5---4--5--x---------|
G|------6-6---4--6--x--6-6---4--6--x---------|
D|------6-6---4--6--x--6-6---4--6--x---------|
A|-------------------------------------------|
E|-------------------------------------------|
 
The end...
E|-----4-4---4--4--x---------------|
B|-----4-4---4--4--x---------------|
G|-----5-5---4--5--x---------------|
D|-----6-6---4--6--x---------------|
A|-----6-6---4--6--x---------------|
E|---------------------------------|


And spread the world around.
E|-------------------------------------|
B|-------------------------------------|
G|-------------------------------------|
D|---5--3------3-----------------------|
A|----------6------6--3~---------------|
E|-------------------------------------|


Verse 2 and PRE-Chorus:

I sold my soul to the devil...
E|-------------------------------------|
B|-------------------------------------|
G|-------------------------------------|
D|-------------------------------------|
A|------3-3-3----------5---------------|
E|--------------3---5------------------|


I really think this could be the end of the world...
E|---3--3------3--3----3--------------------|
B|---3--3------3--3----3--------------------|
G|---3--3------3--3----3--------------------|
D|---5--5------5--5----5--------------------|
A|---5--5------5--5----5--------------------|
E|---3--3------3--3----3--------------------|

Chorus:

It's the end...The skys fallin' down...
E|----8--8--8---8--x---8--8--8---8--x------------|
B|----9--9--8---9--x---9--9--8---9--x------------|
G|---10-10--8--10--x--10-10--8--10--x------------|
D|---10-10--8--10--x--10-10--8--10--x------------|
A|-----------------------------------------------|
E|-----------------------------------------------|


The end...So gays grap the girls...
E|------4-4---4--4--x--4-4---4--4--x---------|
B|------5-5---4--5--x--5-5---4--5--x---------|
G|------6-6---4--6--x--6-6---4--6--x---------|
D|------6-6---4--6--x--6-6---4--6--x---------|
A|-------------------------------------------|
E|-------------------------------------------|
 
The end...
E|-----4-4---4--4--x---------------|
B|-----4-4---4--4--x---------------|
G|-----5-5---4--5--x---------------|
D|-----6-6---4--6--x---------------|
A|-----6-6---4--6--x---------------|
E|---------------------------------|


And spread the world around.
E|-------------------------------------|
B|-------------------------------------|
G|-------------------------------------|
D|---5--3------3-----------------------|
A|----------6------6--3~---------------|
E|-------------------------------------|

Solo part:



Strum this many times after the "And spread the world around" ends:

E|-----3--------------------|
B|-----3--------------------|
G|-----3--------------------|
D|-----5--------------------|
A|-----5--------------------|
E|-----3--------------------|

Solo:
E|----3--3-------3----------------|
B|----4--4-------3----------------|
G|----5--5-------4----------------|
D|----5--5-------5----------------|
A|----3--3-------5----------------|
E|----3--3-------3----------------|

E|-------9-11~-----9-11~-----------|
B|--10--------10-------------------|
G|---------------------------------|
D|---------------------------------|
A|---------------------------------|
E|---------------------------------|


E|----3--3-----3-------------------|
B|----3--3-----4-------------------|
G|----4--4-----5-------------------|
D|----5--5-----5-------------------|
A|----5--5-----3-------------------|
E|----3--3-----3-------------------|

E|-------10-12~-----10-12~-----------|
B|---11---------11-------------------|
G|-----------------------------------|
D|-----------------------------------|
A|-----------------------------------|
E|-----------------------------------|

E|----3--3-------3-----------------|
B|----4--4-------3-----------------|
G|----5--5-------4-----------------|
D|----5--5-------5-----------------|
A|----3--3-------5-----------------|
E|----3--3-------3-----------------|

E|-------11-13~-----11-13~--------|
B|---12---------12----------------|
G|--------------------------------|
D|--------------------------------|
A|--------------------------------|
E|--------------------------------|

E|----3--3-----3--------------|
B|----3--3-----4--------------|
G|----4--4-----5--------------|
D|----5--5-----5--------------|
A|----5--5-----3--------------|
E|----3--3-----3--------------|


E|-------9-----9----9----9-----9-----9------|
B|---10---10---10---10---10----10-----------|
G|------------------------------------------|
D|------------------------------------------|
A|------------------------------------------|
E|------------------------------------------|

PRE-Chorus:

Looking in your eyes...
E|------------------------------------|
B|------------------------------------|
G|------------------------------------|
D|------------------------------------|
A|------3-3-3---------5---------------|
E|--------------3---5-----------------|


I really think this could be the end of the world...
E|---3--3------3--3----3--------------|
B|---3--3------3--3----3--------------|
G|---3--3------3--3----3--------------|
D|---5--5------5--5----5--------------|
A|---5--5------5--5----5--------------|
E|---3--3------3--3----3--------------|

Chorus (No guitar here):

It's the end of the world.
The skys fallin' down.
The end of the world.
So gays grap the girls.
The end of the world.


And spreat the world around.
E|------------------------------------|
B|------------------------------------|
G|------------------------------------|
D|---5--3------3~---------------------|
A|----------6------6--3~--------------|
E|------------------------------------|

Strum this many times before the chorus starts:

E|-----3---------------------|
B|-----3---------------------|
G|-----3---------------------|
D|-----5---------------------|
A|-----5---------------------|
E|-----3---------------=-----|



Chorus and solo:




Chorus:

It's the end...The skys fallin' down...
E|----8--8--8---8--x---8--8--8---8--x------------|
B|----9--9--8---9--x---9--9--8---9--x------------|
G|---10-10--8--10--x--10-10--8--10--x------------|
D|---10-10--8--10--x--10-10--8--10--x------------|
A|-----------------------------------------------|
E|-----------------------------------------------|


The end...So gays grap the girls...
E|------4-4---4--4--x--4-4---4--4--x---------|
B|------5-5---4--5--x--5-5---4--5--x---------|
G|------6-6---4--6--x--6-6---4--6--x---------|
D|------6-6---4--6--x--6-6---4--6--x---------|
A|-------------------------------------------|
E|-------------------------------------------|
 
The end...
E|-----4-4---4--4--x---------------|
B|-----4-4---4--4--x---------------|
G|-----5-5---4--5--x---------------|
D|-----6-6---4--6--x---------------|
A|-----6-6---4--6--x---------------|
E|---------------------------------|


And spread the world around.
E|-------------------------------------|
B|-------------------------------------|
G|-------------------------------------|
D|---5--3------3-----------------------|
A|----------6------6--3~---------------|
E|-------------------------------------|

Solo:

Strum this many times after the "And spread the world around" ends:

E|-----3-----------------|
B|-----3-----------------|
G|-----3-----------------|
D|-----5-----------------|
A|-----5-----------------|
E|-----3-----------------|

Solo:
E|----3--3-------3----------------|
B|----4--4-------3----------------|
G|----5--5-------4----------------|
D|----5--5-------5----------------|
A|----3--3-------5----------------|
E|----3--3-------3----------------|

E|-------9-11~-----9-11~-----------|
B|--10--------10-------------------|
G|---------------------------------|
D|---------------------------------|
A|---------------------------------|
E|---------------------------------|


E|----3--3-----3-------------------|
B|----3--3-----4-------------------|
G|----4--4-----5-------------------|
D|----5--5-----5-------------------|
A|----5--5-----3-------------------|
E|----3--3-----3-------------------|

E|-------10-12~-----10-12~-----------|
B|---11---------11-------------------|
G|-----------------------------------|
D|-----------------------------------|
A|-----------------------------------|
E|-----------------------------------|

E|----3--3-------3-----------------|
B|----4--4-------3-----------------|
G|----5--5-------4-----------------|
D|----5--5-------5-----------------|
A|----3--3-------5-----------------|
E|----3--3-------3-----------------|

E|-------11-13~-----11-13~--------|
B|---12---------12----------------|
G|--------------------------------|
D|--------------------------------|
A|--------------------------------|
E|--------------------------------|

E|----3--3-----3--------------|
B|----3--3-----4--------------|
G|----4--4-----5--------------|
D|----5--5-----5--------------|
A|----5--5-----3--------------|
E|----3--3-----3--------------|


E|------9-----9----9----9----9-----9~------|
B|---10---10---10---10---10----10----------|
G|-----------------------------------------|
D|-----------------------------------------|
A|-----------------------------------------|
E|-----------------------------------------|




Thanks for watching my tab :D If you have any questions ask me in my profile in Ultimate Guitar.
Tap to rate this tab
# A B C D E F G H I J K L M N O P Q R S T U V W X Y Z