Song name
# A B C D E F G H I J K L M N O P Q R S T U V W X Y Z

Mcfly - She Left Me tab

First tab! I think this is very accurate. I didn't include the solo, just the 
guitar throughout the whole song. I tried adding the chord name under each to help you on where to 
your fingers. Not sure about the Em7s but yeah. Please rate and review. :)

Song: She Left Me
Band: McFly
Album: Room on the Third Floor
Transcriber: Jukka

Tuning: Standard
Capo: No

Intro/”She walked in and said…”

e|-------3-----------2-----------3-----------2h3-----|
B|-----0---0-------3---3-------1---1-------3-----3---|
G|---0-------0---4-------4---0-------0---2---------2-|
D|-------------------------------------0-------------|
A|-------------2-----------3-------------------------|
E|-3-------------------------------------------------|
   G          Bm           C           D

e|-------3-----------2-----------3-----------5-------|
B|-----0---0-------3---3-------1---1-----4-----4-----|
G|---0-------0---4-------4---0-------0-----5-----5---|
D|-------------------------------------0-------------|
A|-------------2-----------3-------------------------|
E|-3-------------------------------------------------|
                                          Cm(add9)?

“I didn’t know…”

e|-------2-----------3-----------2-----------3-------|
B|-----3---3-------0---0-------3---3-------0---0-----|
G|---4-------4---0-------0---4-------4---0-------0---|
D|---------------------------------------------------|
A|-2-----------2-----------2-------------------------|
E|-------------------------------------0-------------|
   Bm          Em          Bm          Em


“But now…”

e|-------0-----------0-----------3-----2------------|
B|-----1---1-------1---1-------3---3----------------|
G|---0-------0---0-------0---2-------2--------------|
D|-------------------------0------------------------|
A|-------------3------------------------------------|
E|-0------------------------------------------------|
                           D

Chorus:
“Since she left me”

e|-------3-----------2-----------3-----------2h3-----|
B|-----0---0-------3---3-------1---1-------3-----3---|
G|---0-------0---4-------4---0-------0---2---------2-|
D|-------------------------------------0-------------|
A|-------------2-----------3-------------------------|
E|-3-------------------------------------------------|
   G          Bm           C           D


e|-------2-----------0-----------3----------3-2-----|
B|-----3---3-------0---0-------1---1------------3---|
G|---4-------4---0-------0---0-------0---2--------2-|
D|-------------------------------------0------------|
A|-2-----------------------3------------------------|
E|-------------0------------------------------------|
   Bm                      C           D

“Then I knew…”

e|-------0-----------0-----------0------------------|
B|-----0---0-------0---0-------0---0-------0--------|
G|---0-------0---0-------0---0-------0---0---2------|
D|--------------------------------------------------|
A|-7-----------6-----------5-----------4------------|
E|--------------------------------------------------|
   Em

“Now I…”

e|-------3-----3-----5------------------------------|
B|-----1---1-----1-----4----------------------------|
G|---0-------0-----0-----5--------------------------|
D|--------------------------------------------------|
A|-3------------------------------------------------|
E|--------------------------------------------------|

“She’s gone…”

e|-------3-----------2-----------3------|
B|-----0---0-------3---3-------1---1----|
G|---0-------0---4-------4---0-------0--| [strum]D D D D D
D|--------------------------------------|
A|-------------2-----------3------------|
E|-3------------------------------------|
   G          Bm           C


“I tried calling her…”

e|-------3-----------2-----------3-----------2h3-----|
B|-----0---0-------3---3-------1---1-------3-----3---|
G|---0-------0---4-------4---0-------0---2---------2-|
D|-------------------------------------0-------------|
A|-------------2-----------3-------------------------|
E|-3-------------------------------------------------|
   G          Bm           C           D

“I left messages after the tone…”

e|-------3-----|           |-------3-----------5-------|
B|-----0---0---|           |-----1---1-----4-----4-----|
G|---0-------0-| [strum]Bm |---0-------0-----5-----5---|
D|-------------|           |-------------0-------------|
A|-------------|           |-3-------------------------|
E|-3-----------|           |---------------------------|
                                          ???

“I didn’t know…”

e|-------2-----------3-----------2-----------3-------|
B|-----3---3-------0---0-------3---3-------0---0-----|
G|---4-------4---0-------0---4-------4---0-------0---|
D|---------------------------------------------------|
A|-2-----------2-----------2-------------------------|
E|-------------------------------------0-------------|
   Bm          Em          Bm          Em


“But now…”

e|-------0-----------0-----------3-----2------------|
B|-----1---1-------1---1-------3---3----------------|
G|---0-------0---0-------0---2-------2--------------|
D|-------------------------0------------------------|
A|-------------3------------------------------------|
E|-0------------------------------------------------|
                           D

Chorus:
“Since she left me”

e|-------3-----------2-----------3-----------2h3-----|
B|-----0---0-------3---3-------1---1-------3-----3---|
G|---0-------0---4-------4---0-------0---2---------2-|
D|-------------------------------------0-------------|
A|-------------2-----------3-------------------------|
E|-3-------------------------------------------------|
   G          Bm           C           D


e|-------2-----------0-----------3---------3-2------|
B|-----3---3-------0---0-------1---1------------3---|
G|---4-------4---0-------0---0-------0---2--------2-|
D|-------------------------------------0------------|
A|-2-----------0------------------------------------|
E|-------------------------3------------------------|

“Then I knew…”

e|-------0-----------0-----------0------------------|
B|-----0---0-------0---0-------0---0-------0--------|
G|---0-------0---0-------0---0-------0---0---2------|
D|--------------------------------------------------|
A|-7-----------6-----------5-----------4------------|
E|--------------------------------------------------|
   Em

“Now I…”

e|-------3-----3-----5------------------------------|
B|-----1---1----------------------------------------|
G|---0-------0--------------------------------------|
D|--------------------------------------------------|
A|-3------------------------------------------------|
E|--------------------------------------------------|

During the guitar solo…

e|-------3-----------2-----------3-----|
B|-----0---0-------3---3-------1---1---|
G|---0-------0---4-------4---0-------0-| [Strum] D D D D D
D|-------------------------------------|
A|-------------2-----------3-----------|
E|-3-----------------------------------|
   G          Bm           C

e|-------3-----------2-----------3-----------5-------|
B|-----0---0-------3---3-------1---1-----4-----4-----|
G|---0-------0---4-------4---0-------0-----5-----5---|
D|-------------------------------------0-------------|
A|-------------2-----------3-------------------------|
E|-3-------------------------------------------------|
                                          ???
e|-------2-----------3-----------2-----------3-------|
B|-----3---3-------0---0-------3---3-------0---0-----|
G|---4-------4---0-------0---4-------4---0-------0---|
D|---------------------------------------------------|
A|-2-----------2-----------2-------------------------|
E|-------------------------------------0-------------|
   Bm          Em          Bm          Em


e|-3-----3-----3-----3-----3-----3-----3-----3-----|
B|---1-----1-----1-----1-----1-----1-----1-----1---|
G|-----0-----0-----0-----0-----0-----0-----0-----0-| [Strum] Bm
D|-------------------------------------------------|
A|-------------------------------------------------|
E|-------------------------------------------------|

Chorus:
“Since she left me”

e|-------3-----------2-----------3-----------2h3-----|
B|-----0---0-------3---3-------1---1-------3-----3---|
G|---0-------0---4-------4---0-------0---2---------2-|
D|-------------------------------------0-------------|
A|-------------2-----------3-------------------------|
E|-3-------------------------------------------------|
   G          Bm           C           D


e|-------2-----------0-----------3----------3-2-----|
B|-----3---3-------0---0-------1---1------------3---|
G|---4-------4---0-------0---0-------0---2--------2-|
D|-------------------------------------0------------|
A|-2-----------0------------------------------------|
E|-------------------------3------------------------|

“Then I knew…”

e|-------0-----------0-----------0------------------|
B|-----0---0-------0---0-------0---0-------0--------|
G|---0-------0---0-------0---0-------0---0---2------|
D|--------------------------------------------------|
A|-7-----------6-----------5-----------4------------|
E|--------------------------------------------------|
   Em

“Now I…”

e|-3----3-5-----------------------------------------|
B|-1----4-4-----------------------------------------|
G|-0----5-5-----------------------------------------|
D|------0-0-----------------------------------------|
A|-3------------------------------------------------|
E|--------------------------------------------------|

“She’s gone…”

e|-------3-----------2-----------3-----3-----5------|
B|-----0---0-------3---3-------1---1-----1-----4----|
G|---0-------0---4-------4---0-------0-----2-----5--| [Strum] Gmaj7
D|--------------------------------------------------|
A|-------------2-----------3------------------------|
E|-3------------------------------------------------|
   G          Bm           C           D
Tap to rate this tab
 
# A B C D E F G H I J K L M N O P Q R S T U V W X Y Z