Song name
# A B C D E F G H I J K L M N O P Q R S T U V W X Y Z

Mcfly - Room On The Third Floor tab

McFly
Room On The Third Floor
Tuning: EADGBE (Standard)
Transcribed by Soch H.

Intro: (0:01)
|-------------------------------------------------------------|
|-------------------------------------------------------------|
|---------------------9~-9h11-9~------11b13rp9-11~--11b13rp9--|
|-6h7-/9-7s6-6~---/11-----------------------------------------|
|-------------------------------------------------------------|
|-------------------------------------------------------------|

|-------------------------------------------------------------|
|-------------------------------------------------------------|
|------------11p9-------------------------9b9.5--------11b=13-|
|-11~-------------11p9-------------9~-11----------11----------|
|----------------------11s9-7-9s11----------------------------|
|-------------------------------------------------------------|

|--------------------9----------------------------------------|
|-12---------------9---12p9-----------------------------------|
|----11~-----11b13----------11b13rp9----9---------------------|
|------------------------------------11---11-9--------------9-|
|----------------------------------------------11s9-7-9s11----|
|-------------------------------------------------------------|

|-------------------|
|-------------------|
|-9-9-9-8-8-8h9p8\--|
|-------------------|
|-------------------|
|-------------------|

|-4-4-4-4-4------0-0-0-0-0--------------------4-4-4--|
|-5-5-5-5-5---4--2-2-2-2-2--------------------5-5-5--|
|-6-6-6-6-6---4--2-2-2-2-2---9-9-9-9-9-9-9-9--6-6-6--|
|-6-6-6-6-6---4--2-2-2-2-2---9-9-9-9-9-9-9-9--6-6-6--|
|-4-4-4-4-4---2--0-0-0-0-0---7-7-7-7-6-6-6-6--4-4-4--|
|----------------------------------------------------|

|---------0--------0--------------0---------|
|-4-4-4---2--------1--------------0---------|
|-4-4-4---2--------2--------------1---------|
|-4-4-4---2--------2--------------2---------|
|-2-2-2---0--------0--------------2---------|
|---------------------------------0---------|

(0:47)
|-------------------------------------------------------------|
|----------------------------------------12b14--12~---10p9-10-|
|------9h11-9~---11b13rp9-------11b13rp9----------------------|
|-9h11--------------------11~---------------------------------|
|-------------------------------------------------------------|
|-------------------------------------------------------------|

|------------------------------------------------------------|
|-9h10p9--------------------------------------12b14~---------|
|--------11---9h11-11b13r-9h11-9~----11b13rp9----------------|
|------------------------------------------------------------|
|------------------------------------------------------------|
|------------------------------------------------------------|

|----------12b14-12~--12p11p9-------------12-14b16-14b16r----12-----|
|-12b14rp9--------------------12p9--12h14-----------------14----14~-|
|-------------------------------------------------------------------|
|-------------------------------------------------------------------|
|-------------------------------------------------------------------|
|-------------------------------------------------------------------|

E
Room on the third floor
F#
Not what we asked for
A         B               E
I'm not tired enough to sleep
E
One bed is broken
F#
Next room is smokin'
A        B                   E
Air conditioning's stuck on heat

C#m                      B
And outside it's raining
A
You're the guest upstairs complainin'
           E                            C#m B
About the room that's got the T.V. too loud
               A              
I guess it's times like these remind me
           Am                          E
That I've got to keep my feet on the ground, yeah

E
Wake up early
F#
'Round seven-thirty
A               B             E  B
Housekeeping knockin' on my door
E
Do not disturb sign
F#
The back of her mind
A          B               B
I must of left it on the floor

C#m                 B
My eyes are hurting
A
'Cause the cheap nylon curtains
             E                               C#m  B
Lets the sunlight creep in through from the cloud

(1:17)
|---------9---------------------------------------------------|
|-------9---12p9----------------------------------------------|
|-11b13----------11b13r-9----9h11p9---------------------------|
|-------------------------11--------11\-----------------------|
|-------------------------------------------------------------|
|-------------------------------------------------------------|
A     
'Cause it's times like these remind me
          Am                           E       E7
That I've got to keep my feet on the ground

A                     E   E7
Na na na na na na na naa
A        F#            B
Na na na na na na na naaaa

|---------------------|
|-14-14b16r--12-12----|
|---------------------|
|---------------------|
|---------------------|
|---------------------|

A
I guess it's times like these remind me
F#m
I guess it's times like these remind me
A
I guess it's times like these remind me
          Am                           E     E7
That I've got to keep my feet on the ground

A                      E
Na na na na na na na naaa
(2:26)
|----------------------------|
|-10-12b14r-10-9-9h10-9------|
|-----------------------11-9-|
|----------------------------|
|----------------------------|
|----------------------------|

A        F#             B
Na na na na na na na naaaaa

|---------------------|
|-14-14b16r--12-12----|
|---------------------|
|---------------------|
|---------------------|
|---------------------|
A
I guess it's times like these remind me
F#m
I guess it's times like these remind me
A
I guess it's times like these remind me
          Am                           E   
That I've got to keep my feet on the ground

Ending:
|---------9---------------------------------------------------------|
|-------9---12p9----------------------------------------------------|
|-11b13----------11b13r-9-------------------------------------------|
|-------------------------11--11-9----------------------------------|
|----------------------------------11-9--7-7~-----------------------|
|-------------------------------------------------------------------|

Chords:
E:   022100
F#:  244322
A:   577655 or x02220
B:   799877 or x2444x
C#m: x46654
Am:  x02210 or 577555
E7:  022130


Tap to rate this tab
 
# A B C D E F G H I J K L M N O P Q R S T U V W X Y Z