Song name
# A B C D E F G H I J K L M N O P Q R S T U V W X Y Z

Mcfly - Chills In The Evening tab

V featuring McFly
Chills In The Evening
Tuning: EADGBE (Standard)
Transcribed by Soch H.


Guitar Solo:(2:52)
|-------------------------------9-9-8-8-------------------------|
|------------9--------------------------6--9b11=--9pb11p6---6---|
|---6-8b10==---8pb10--6h8--6~-----------------------------8-----|
|-8-------------------------------------------------------------|
|---------------------------------------------------------------|
|---------------------------------------------------------------|

|------------------------------------------------------------|
|------------------------------------------------------------|
|-8p6----6b6.5------------------------6~---8b10rb10r---------|
|-----8--------8------------------6-8------------------------|
|---------------------------4-6s8----------------------------|
|----------------9\-----4-6----------------------------------|
                     PM|-------------|


|---9-11-11s12--11-9--9h11-9~----11-9-8-9-8----8-9p8----8---|
|-9-----------------------------------------11-------11-----|
|-----------------------------------------------------------|
|-----------------------------------------------------------|
|-----------------------------------------------------------|
|-----------------------------------------------------------|

|---------------------------------------------------------------|
|-11-9-----------9-----9-----9----------9-----------------------|
|------10s8-6-8--8b10=-8b10=-8b10=-8b10---8pb10-6---------------|
|--------------------------------------------------8\-----------|
|---------------------------------------------------------------|
|---------------------------------------------------------------|

Legend:
b:   bend
pb:  pre-bend
s:   slide
r:   release
p:   pulloff
h:   hammer-on
PM:  palm-mute
Tap to rate this tab
# A B C D E F G H I J K L M N O P Q R S T U V W X Y Z