Song name
# A B C D E F G H I J K L M N O P Q R S T U V W X Y Z

Mcfly - Down By The Lake tab

Help us improve GuitareTab! Take a short survey!
McFly
Down By The Lake
Tuning: Standard
Transcribed by Soch H.

Riff: (0:24)
|-9-8-6--------------------|
|-------9-6----------------|
|-----------9-8-6----------|
|-----------------8~-------|
|--------------------------|
|--------------------------|

Riff 2: (0:56)
|-------13-------11------10-----8-----|
|-------------------------------------|
|-13h14----11h12----9h10----7h8-------|
|-------------------------------------|
|-------------------------------------|
|-------------------------------------|

Riff 3: (1:04)
|-20b22-20b22-20b22r-18-20~--18-20-20b22--20b22~--20b22--20b22r-|
|---------------------------------------------------------------|
|---------------------------------------------------------------|
|---------------------------------------------------------------|
|---------------------------------------------------------------|
|---------------------------------------------------------------|

|-18-20-18~\---|
|--------------|
|--------------|
|--------------|
|--------------|
|--------------|

Guitar Solo: (1:53)
|------6-6------6-6------6-6-----------------------------------|
|------6-6------6-6------6-6-9-6-------------------------------|
|-8b10-----8b10-----8b10---------8b10r---8b10--8b10--8b10rp6---|
|------------------------------------------------------------8-|
|--------------------------------------------------------------|
|--------------------------------------------------------------|

|------------------------6-------------------------------------|
|-----------x----------6---9-[6]-------------------------------|
|-8-6~~-----x-8-8-8b10-----------8b10rp6-8-6-------------------|
|-----------x--------------------------------8-6-------6-6--8--|
|------------------------------------------------8-6-8---------|
|--------------------------------------------------------------|

|-----------------6-6-5-5---------------------------|
|-------------------------8-6-6b7-----8--6-6b7------|
|-------------------------8-6-6b7-----8--6-6b7------|
|-8-8-8-8\------------------------8-8----------8-6--|
|---------------------------------------------------|
|---------------------------------------------------|

|---------------------------------------------------------------|
|-----------------------------------6---6-------6-----6---------|
|-----------------------------------6---6---6-8-8b10--8b10------|
|-------------------------------/8----8---8---------------------|
|---8-7-6-4---4---4---------------------------------------------|
|-----------6---6----6\-----------------------------------------|
 PM|----------------|

|--------------------8----9----8---------------------------------|
|-6-----6---------------------------11---------------------------|
|-8b10--8b10----8s10---10---10---10------------------------------|
|----------------------------------------------------------------|
|----------------------------------------------------------------|
|----------------------------------------------------------------|

Legend:
PM: palm-mute
b:  bend
h:  hammeron
p:  pulloff
r:  release
~:  vibrato
s:  slide
[#]: pinch harmonic
Related for Down By The Lake tab