Guitaretab - guitar tabs
Song name
# A B C D E F G H I J K L M N O P Q R S T U V W X Y Z

Mcfly - Memory Lane tab

McFly 
Memory Lane
From the Wonderland Album
Capo 1st Fret
Transcribed by Soch H.
(Everything is relative to capo)

Intro: (Relative to Capo)
|------------------------------------------|
|------------------------------------------|
|------------------------------------------|
|---------5-5-5-5-5-5-5-5-5-5-5-5-5-5-5-5--|
|---------5-5-5-5-5-5-5-5-5-5-5-5-5-5-5-5--|
|-10\-----3-3-3-3-3-3-3-3-3-3-3-3-3-3-3-3--|
       PM|--------------------------------|

  G              D             Em7    B7   Cadd9          G    Am/G
|-----------------------------------------------------------------|
|-----------------------------------------------------------------|
|-------------------2b3rp0--------------------------0h2p0---------|
|---------0h2p0--0---------2p0------------------0h2---------------|
|-----0h2---------------------------------------------------------|
|-----------------------------------------------------------------|
   D
|----------------------|
|-----3----------------|
|-2s4---2p0-2p0--------|
|---------------2p0----|
|----------------------|
|----------------------|

Verse:
G           D
Two years away
Em7          B7
I got back today
Cadd9           G             Am/G       Dsus  D
Tried calling up this girl I used to know
G                 D
But when I said hello
Em7          B7
She didn't know 
Cadd9         G            Am/G        Dsus  D
Just who the hell I was supposed to be

|----------------------|
|-----3----------------|
|-2s4---2p0-2p0--------|
|---------------2p0----|
|----------------------|
|----------------------|
[ Tab from: http://www.guitaretab.com/m/mcfly/56031.html ]
Chorus:
Cadd9    G
Memory lane
Em7 
We're here again
D            Cadd9  G
Back to the days
Em7                D      Cadd9  G
And I'll remember you always
Em7           A   Em7
So much has changed
         Cadd9            D
Now it feels like yesterday I went away

Verse 2:
G            D
The words around
Em7             B7
That she moved town
Cadd9       G           Am/G          Dsus  D
About a thousand miles away from here
        G                   D
And I found something she wrote
Em7          B7
A long time ago
Cadd9      G             Am/G             Dsus  D
And it reminds me of a place I know called

Chorus:
Cadd9    G
Memory lane
Em7 
We're here again
D            Cadd9  G
Back to the days
Em7                 D       Cadd9  G
And I'll remember you always
Em7          A   Em7
So much has changed
         Cadd9            D
Now it feels like yesterday I went away

G              Cadd9
So much has changed (so much has changed)
               G
So much has changed (so much has changed)
               Am/G                Cm
So much has changed (so much has changed)


             Cadd9 G
Down memory lane
Em7
We're here again
D            Cadd9   G
Back to the days
Em7                D      Cadd9  G
And I'll remember you always
Em7          A   Em7
So much has changed
        Cadd9              D
Now it feels like yesterday I went away

G              Cadd9
So much has changed (so much has changed)
               G
So much has changed (so much has changed)
               Am/G                 Cm
So much has changed (so much has changed)
              G
Down memory lane
(x2)


               Cadd9
So much has changed (so much has changed)
               G
So much has changed (so much has changed)
(Repeat)

Chords:
G:     320033
Em7:   022033
D:     xx0232
Dsus:  xx0233
B7:    x21202
Cadd9: x32033
Am/G:  x02010
Cm:    x35543
A:     x02220
Related for Memory Lane tab
Advertisement will be closed in 10 seconds