Song name
# A B C D E F G H I J K L M N O P Q R S T U V W X Y Z

Mcfly - I Wanna Hold You tab

-------------------------------------------------------------
	        I wanna hold you - Mcfly
-------------------------------------------------------------
Tabbed by: Ailsa
Email: ailsafern@hotmail.co.uk

Tuning: Standard


INTRO:
e-----------------------------------------------------------|
a----8-8--865----8--67----8-8---865-----2h3-7--2h3-9--------|
d----7-7--7------7--------7-7---7---------------------------|
g-----------------------------------------------------------|
b-----------------------------------------------------------|
e-----------------------------------------------------------|

e-----------------------------------------------------------|
a----8--65----888--65----88-8--65-----*-2h3-7--2h3-9--------|
d----7--------777--------77-7-------------------------------|
g-----------------------------------------------------------|
b-----------------------------------------------------------|
e-----------------------------------------------------------|

Played at * :
e-----------------------------------------------------------|
a-----------------------------------------------------------|
d-----------33--3-----55------------------------------------|
g-----5-----33--3-----55-----5------------------------------|
b-----5-----11--1-----33-----5------------------------------|
e-----3----------------------3------------------------------|


VERSE:

e-----------------------------------------------------------|
a-----------------------------------------------------------|
d-----------------------------------------------------------|
g---5--3--5--3--5--3--53----5--3--5--3--5--3--53------------|
b---5--3--5--3--5--3--53----5--3--5--3--5--3--53------------|
e---3--1--3--1--3--1--31----3--1--3--1--3--1--31------------|

e-----------------------------------------------------------|
a-----------------------------------------------------------|
d------------------------------33-3---55--------------------|
g---5--3--5--3--5--3--53----5--11-1---55--5-----------------|
b---5--3--5--3--5--3--53----5--11-1---33--5-----------------|
e---3--1--3--1--3--1--31----3-------------3-----------------| x2


CHORUS:
     D           B                    Em
e----2-----------2---------------------0--------------------|
a----3-----------4---------------------0--------------------|
d----2-----------4---------------------0--------------------|
g----0-----------4---------------------2--------------------|
b----x-----------2---------------------2--------------------|
e----x-----------2---------------------0--------------------|
I wanna hold you, My skies are turning black,
                     A        G                     A
e--------------------0--------3---------------------0-------|
a--------------------2--------0---------------------2-------|
d--------------------2--------0---------------------2-------|
g--------------------2--------0---------------------2-------|
b--------------------0--------2---------------------0-------|
e--------------------0--------3---------------------0-------|
Feels Like a heart attack. And I'd do anything you ask,
                  D  D7
e-----------------2--2--------------------------------------|
a-----------------3--1--------------------------------------|
d-----------------2--2--------------------------------------|
g-----------------0--0--------------------------------------|
b-----------------x--x--------------------------------------|
e-----------------x--x--------------------------------------|
 I wanna hold you ba-ad.


VERSE

CHORUS

  D        Bm                         E
e--2--------2-------------------------0---------------------|
a--3--------3-------------------------0---------------------|
d--2--------4-------------------------1---------------------|
g--0--------4-------------------------2---------------------|
b--x--------2-------------------------2---------------------|
e--x--------2-------------------------0---------------------|
  Attention please, We interrupt this programme,
                      A                      D
e---------------------0----------------------2--------------|
a---------------------2----------------------3--------------|
d---------------------2----------------------2--------------|
g---------------------2----------------------0--------------|
b---------------------0----------------------x--------------|
e---------------------0----------------------x--------------|
 With some disturbing news, A worldwide evacuation,
               Bm                             E
e---------------2-----------------------------0-------------|
a---------------3-----------------------------0-------------|
d---------------4-----------------------------1-------------|
g---------------4-----------------------------2-------------|
b---------------2-----------------------------2-------------|
e---------------2-----------------------------0-------------|
 We're going to lose,  They've pulverised the nation,
             G                        E5  D5
e------------3----------------------------------------------|
a------------0----------------------------------------------|
d------------0-------------------------9---7-9--7-9-7-9-7-9-|
g------------0-------------------------9---7-9--7-9-7-9-7-9-|
b------------2-------------------------7---5-7--5-7-5-7-5-7-|
e------------3----------------------------------------------|
I guess it shows us just what love can do.

(Still figuring out the solo)


CHORUS:
     D           B                     Em
e----2-----------2---------------------0--------------------|
a----3-----------4---------------------0--------------------|
d----2-----------4---------------------0--------------------|
g----0-----------4---------------------2--------------------|
b----x-----------2---------------------2--------------------|
e----x-----------2---------------------0--------------------|
I wanna hold you, My skies are turning black,
                     A        G                     A
e--------------------0--------3---------------------0-------|
a--------------------2--------0---------------------2-------|
d--------------------2--------0---------------------2-------|
g--------------------2--------0---------------------2-------|
b--------------------0--------2---------------------0-------|
e--------------------0--------3---------------------0-------|
Feels Like a heart attack. And I'd do anything you ask,
                   D    D   Bm
e------------------2----2----2----------------------------|
a------------------1----1----3----------------------------|
d------------------2----2----4----------------------------|
g------------------0----0----4----------------------------|
b------------------x----x----2----------------------------|
e------------------x----x----2----------------------------|
 I wanna hold you bad, bad, bad.
         G            A                     D
e--------3------------0----------------------2------------|
a--------0------------2----------------------3------------|
d--------0------------2----------------------2------------|
g--------0------------2----------------------0------------|
b--------2------------0----------------------x------------|
e--------3------------0----------------------x------------|
 I'd do anything you ask, I wanna hold you **bad.

Played at ** :
e----10--8--7--55--10-8--7----10-10--8--7--6--5----13-14--10-|
a------------------------------------------------------------|
d------------------------------------------------------------|
g------------------------------------------------------------|
b------------------------------------------------------------|
e------------------------------------------------------------|




Hey, this is my first tab - Hope it's alright =P
It sounds alright when I play it anyway =D Enjoy.

By Ailsa, 15.
Tap to rate this tab
# A B C D E F G H I J K L M N O P Q R S T U V W X Y Z