Song name
# A B C D E F G H I J K L M N O P Q R S T U V W X Y Z

Mcfly - She Falls Asleep Part 1 tab

Help us improve GuitareTab! Take a short survey!
McFly 
She Falls Asleep (Part 1)
Album: Wonderland
Tuning: Standard
Transcribed by Soch Hean

Piano Arranged For Guitar

Piano Theme:
|-------------------------------------------------------------|
|-12p11--------12p11--------12p11-----------14--14--14--------|
|-------11-----------11-----------11----11--------------------|
|----------13-----------13-----------13-----------------------|
|-------------------------------------------------------------|
|-------------------------------------------------------------|

|-------------------------------------------11-----------------|
|-11-12-11----------11----11-12-11-----------------------------|
|----------11----11----------------11----12--------------------|
|-------------13----------------------13-----------------------|
|--------------------------------------------------------------|
|--------------------------------------------------------------|

|-12p11---------12p11--------------------------------------------------------|
|-------12------------12------15-14-12-----14-15----15-14-----------14-------|
|----------13------------13------------12-----------------15-----15----------|
|------------------------------------------------------------16--------------|
|----------------------------------------------------------------------------|
|----------------------------------------------------------------------------|

(0:15)
|------------------------------11-----11------11-----11-------------------|
|-12-11--12-----12-11--12---------14-----12------14-----12----------------|
|-----------13------------13-------------13-------------13----------------|
|-------------------------------------------------------------------------|
|-------------------------------------------------------------------------|
|-------------------------------------------------------------------------|

|------------------------------11-----11-------11---------|
|-12-11--12-----12-11--12---------14-----12---------------|
|-----------13------------13-------------13---------------|
|---------------------------------------------------------|
|---------------------------------------------------------|
|---------------------------------------------------------|

|-12-------12-------12-------12--------16-------16-------16-------16--------|
|----14-------14-------14-------14--------17-------17-------17-------17-----|
|-------14-------14-------14-------14--------18-------18-------18-------18--|
|---------------------------------------------------------------------------|
|---------------------------------------------------------------------------|
|---------------------------------------------------------------------------|

|-14------------------------|
|-14-----11--12--14---------|
|-16-----11--13--15---------|
|-16------------------------|
|---------------------------|
|---------------------------|

----
Piano Theme: (Again)  (0:38)
|-----------------------------------------------|
|-12p11--------12p11--------12p11-----------14--|
|-------11-----------11-----------11----11------|
|----------13-----------13-----------13---------|
|-----------------------------------------------|
|-----------------------------------------------|

|-------------------------------------------11-----------------|
|-11-12-11----------11----11-12-11-----------------------------|
|----------11----11----------------11----12--------------------|
|-------------13----------------------13-----------------------|
|--------------------------------------------------------------|
|--------------------------------------------------------------|

|-12p11---------12p11--------------------------------------------------------|
|-------12------------12------15-14-12-----14-15----15-14-----------14-------|
|----------13------------13------------12-----------------15-----15----------|
|------------------------------------------------------------16--------------|
|----------------------------------------------------------------------------|
|----------------------------------------------------------------------------|

|------------------------------11-----11------11-----11-------------------|
|-12-11--12-----12-11--12---------14-----12------14-----12----------------|
|-----------13------------13-------------13-------------13----------------|
|-------------------------------------------------------------------------|
|-------------------------------------------------------------------------|
|-------------------------------------------------------------------------|

|------------------------------11-----11-------11---------|
|-12-11--12-----12-11--12---------14-----12---------------|
|-----------13------------13-------------13---------------|
|---------------------------------------------------------|
|---------------------------------------------------------|
|---------------------------------------------------------|

|-12-------12-------12-------12--------16-------16-------16-------16--------|
|----14-------14-------14-------14--------17-------17-------17-------17-----|
|-------14-------14-------14-------14--------18-------18-------18-------18--|
|---------------------------------------------------------------------------|
|---------------------------------------------------------------------------|
|---------------------------------------------------------------------------|

|-14------------------------|
|-14-----11--12--14---------|
|-16-----11--13--15---------|
|-16------------------------|
|---------------------------|
|---------------------------|

Outro: (1:19)
|----------------------------------------------------------------------------|
|-10p9------10p9------10p9------------12p11--------12p11--------12p11--------|
|------11--------11--------11---------------11-----------11-----------11-----|
|---------12--------12--------12---------------13-----------13-----------13--|
|----------------------------------------------------------------------------|
|----------------------------------------------------------------------------|

|-------------------------------------------------------------------------------------|
|-12--11------10p9------10p9------10p9---------12p11--------12p11--------12p11--------|
|---------13-------11--------11--------11------------11-----------11-----------11-----|
|---------------------12--------12--------12------------13-----------13-----------13--|
|-------------------------------------------------------------------------------------|
|-------------------------------------------------------------------------------------|

|---------------------------------------------------------------------------|
|-12--11-------10p9--------10p9--------10p9---------15-15--14-14--12--------|
|---------13--------11----------11----------11------------------------------|
|----------------------12----------12----------12---------------------------|
|---------------------------------------------------------------------------|
|---------------------------------------------------------------------------|

Legend:
p - pulloff

Enjoy this Disney-like tune!
Related for She Falls Asleep Part 1 tab