Song name
# A B C D E F G H I J K L M N O P Q R S T U V W X Y Z

Mcfly - Star Girl tab

                            

                           --- Star Girl ---
                             --- McFly ---
                      --- Motion In The Ocean ---


IMPORTANT !!!-->> tune down 1/2 step


-VERSE 1:

I saw danny play this way in live...

d#|-4-4-4-4-4-4-4-4-| \        d#|-4-4-4-4-4-4-4-4-7-7-7-7-7-7-7-7-|
A#|-5-5-5-5-5-5-5-5-|  \       A#|-5-5-5-5-5-5-5-5-5-5-5-5-5-5-5-5-|
F#|-4-4-4-4-4-4-4-4-|   \x2    F#|-2-2-2-2-2-2-2-2-2-2-2-2-2-2-2-2-|
C#|-----------------|   /      C#|---------------------------------|
G#|-----------------|  /       G#|---------------------------------|
D#|-----------------| /        D#|---------------------------------|


d#|-4-4-4-4-4-4-4-4-| \        d#|-4-4-4-4-4-4-4-4-7-7-7-7-7-7-7-7-|
A#|-5-5-5-5-5-5-5-5-|  \       A#|-5-5-5-5-5-5-5-5-5-5-5-5-5-5-5-5-|
F#|-4-4-4-4-4-4-4-4-|   \x2    F#|-2-2-2-2-2-2-2-2-2-2-2-2-2-2-2-2-|
C#|-----------------|   /      C#|---------------------------------|
G#|-----------------|  /       G#|---------------------------------|
D#|-----------------| /        D#|---------------------------------|


d#|-----------------|
A#|-----------------|
F#|-4-4-4-4-4-4-4-4-|
C#|-4-4-4-4-4-4-4-4-|
G#|-2-2-2-2-2-2-2-2-|
D#|-----------------|


-CHORUS:

d#|---------------------------------------------| \
A#|---------------------------------------------|  \
F#|------2--2-2-2--2-2-2-------4--4-4-4--4-4-4--|   \ x3
C#|-2--2-2--2-2-2--2-2-2--4--4-4--4-4-4--4-4-4--|   /
G#|-2--2-0--0-0-0--0-0-0--4--4-2--2-2-2--2-2-2--|  /
D#|-0--0------------------2--2------------------| /

                            let ring.....
d#|-------------------------------|
A#|-------------------------------|
F#|-------------------------------|
C#|-4-4-4-4-6-6-6-6-7-7-7-7-9-9~~~|
G#|-4-4-4-4-6-6-6-6-7-7-7-7-9-9~~~|
D#|-2-2-2-2-4-4-4-4-5-5-5-5-7-7~~~|


-VERSE 2:

d#|-4-4-4-4-4-4-4-4-| \        d#|-4-4-4-4-4-4-4-4-7-7-7-7-7-7-7-7-|
A#|-5-5-5-5-5-5-5-5-|  \       A#|-5-5-5-5-5-5-5-5-5-5-5-5-5-5-5-5-|
F#|-4-4-4-4-4-4-4-4-|   \x2    F#|-2-2-2-2-2-2-2-2-2-2-2-2-2-2-2-2-|
C#|-----------------|   /      C#|---------------------------------|
G#|-----------------|  /       G#|---------------------------------|
D#|-----------------| /        D#|---------------------------------|


d#|-4-4-4-4-4-4-4-4-| \        d#|-4-4-4-4-4-4-4-4-7-7-7-7-7-7-7-7-|
A#|-5-5-5-5-5-5-5-5-|  \       A#|-5-5-5-5-5-5-5-5-5-5-5-5-5-5-5-5-|
F#|-4-4-4-4-4-4-4-4-|   \x2    F#|-2-2-2-2-2-2-2-2-2-2-2-2-2-2-2-2-|
C#|-----------------|   /      C#|---------------------------------|
G#|-----------------|  /       G#|---------------------------------|
D#|-----------------| /        D#|---------------------------------|


[CHORUS]


-BRIDGE:

  fly away.......into day...    melt me with...
d#|-3-------------x----------------0----------------2--------------0--|
A#|-3-------------1----------------1----------------3--------------2--|
F#|-0-------------2----------------0----------------2--------------2--|
C#|-2-------------3----------------2----------------0--------------2--|
G#|-3-------------3----------------3-------------------------------0--|
D#|-x-------------x----------------x-------------------------------x--|


d#|-4-4-4-4-4-4-4-4--4-4-4-4-4-4-4-4--7-7-7-7-7-7-7-7-|
A#|-5-5-5-5-5-5-5-5--5-5-5-5-5-5-5-5--5-5-5-5-5-5-5-5-|
F#|-4-4-4-4-4-4-4-4--2-2-2-2-2-2-2-2--2-2-2-2-2-2-2-2-|
C#|---------------------------------------------------|
G#|---------------------------------------------------|
D#|---------------------------------------------------|

the second time u play this is the verse "i'm lookin' for...." and it ends with B:

d#|--------------------------| \         d#|-----------------|
A#|--------------------------|  \        A#|-----------------|
F#|--------------------------|   \ x2    F#|-----------------|
C#|-2----------4----------7--|   /       C#|-9-9-9-9-9-9-9-9-|
G#|-2----------4----------7--|  /        G#|-9-9-9-9-9-9-9-9-|
D#|-0----------2----------5--| /         D#|-7-7-7-7-7-7-7-7-|


-CHORUS:

d#|---------------------------------------------| \
A#|---------------------------------------------|  \
F#|------2--2-2-2--2-2-2-------4--4-4-4--4-4-4--|   \ x3
C#|-2--2-2--2-2-2--2-2-2--4--4-4--4-4-4--4-4-4--|   /
G#|-2--2-0--0-0-0--0-0-0--4--4-2--2-2-2--2-2-2--|  /
D#|-0--0------------------2--2------------------| /

                            
d#|-------------------------------| \
A#|-------------------------------|  \
F#|-------------------------------|   \ x2
C#|-4-4-4-4-6-6-6-6-7-7-7-7-9-9---|   /
G#|-4-4-4-4-6-6-6-6-7-7-7-7-9-9---|  / 
D#|-2-2-2-2-4-4-4-4-5-5-5-5-7-7---| /


d#|-4-4-4-4-4-4-4-4-|
A#|-5-5-5-5-5-5-5-5-|
F#|-4-4-4-4-4-4-4-4-|
C#|-----------------|
G#|-----------------|
D#|-----------------|
Tap to rate this tab
# A B C D E F G H I J K L M N O P Q R S T U V W X Y Z