Song name
# A B C D E F G H I J K L M N O P Q R S T U V W X Y Z

Mcfly - Walk In The Sun tab

I've given this my best shot - though I'm aware it's not perfect.

H = hammer on
S = slide

Played Capo 4 (for tabbing capo 4 becomes 0)

Verses

Phrase 1 (based around chords D-G)

e|-0—H2-2--0—H2-3-2-0----------------0-------------|
B|-3-3--3--3-3--3-3-3-----3-3------3---3------3----|
G|-0-H2-2--2-2--2-2-2---------0-H2-------0-H2---2--|
D|-------------------------------------------------|
A|-------------------------------------------------|
E|---------------------3---------------------------|

Phrase 2 (based around chords D-A)

e|-0—H2-2--0—H2-3-2-0--0-------------0------|
B|-3-3--3--3-3--3-3-3--2-----3-----5---5----|
G|-0-H2-2--2-2--2-2-2--2-2S4---4S6-------6--|
D|---------------------2--------------------|
A|------------------------------------------|
E|------------------------------------------|

Phrase 3 (based around Chords D-A-G-D)

e|-0—H2-2--0—H2-3-2-0--0-0------------------|
B|-3-3--3--3-3--3-3-3--2-2---3--3--0--3-----|
G|-0-H2-2--2-2--2-2-2--2-2---2--2--2--2-----|
D|---------------------2-2------------4-----|
A|------------------------------------------|
E|---------------------------3--2--0--------|

Link & Chorus

Link (D,D/F#,G)
E|-------0-------------|------------------------------------|
B|-----3-------3-------|-----3------------3-----------3-----|
G|---2-------2---2-----|---0---0--------0---0-------2---2---|
D|-0-------------------|--------------------------0---------|
A|---------------------|------------------------------------|
E|---------2--------3--|-3------------3---------------------|
                         Such a long, long way to go....... (
back to link and repeat x 3

Bridge

    Line 1 & 5      Line 2 & 6     Line 3& end of 6  Line 4 & 7
e|----0------0----|----0------0----|---0-----0----|---0-----0----|
B|--3---3--3---3--|--2---2--2---2--|-0---0-0---0--|-3---3-3---3--|
G|--4------4------|--2------2------|--------------|--------------|
D|----------------|----------------|--------------|--------------|
A|----------------|----------------|--------------|--------------|
E|----------------|----------------|--------------|--------------|

Line 8 (come in on Sun..)
E|-----2--------2-------------------------------|
B|-2-2----2-2-2---2-----------------------------|
G|-2-2------2-2---------------------------------|
D|----------------------------------------------|
A|----------------------------------------------|
E|----------------------------------------------|

Intro: Phrase 1, phrase 2, phrase 1, phrase 3
     Or D, G, D, A, D, G, D, A, G, D

Verse 1
D                             G
I wonder what it's like to be loved by you
D                             A
I wonder what it's like to be home
D                                           G
And i don't walk when there's a stone in my shoe
D                       A            G  D
All i know is that with time I'll be fine……

Verse 2
D                                   G
I wonder what it's like to fly so high
D                       A
Or to breathe under the sea
D                            G
I wonder if some day I'll be good with goodbyes
D                     A                      G   D
But I'll be ok if you come along with me……

Chorus

D D/F#  G                                      D
…………      Such a long, long way to go
D D/F# G                                       D
          Where I'm going i don't know
D D/F# G                                     D
          I'm just following the road
                           G
For a walk in the sun
                           A      D
For a walk in the sun.............

Verse 3
D                       G
I wonder how they put a man on the moon
D                          A
I wonder what it's like up there
D                       G
I wonder if you'll ever sing this tune
      D           A               G  D
All I know is the answer's in the air

Chorus

D D/F# G                           D
          Such a long, long way to go
D D/F# G                         D
         Where I'm going i don't know
D D/F# G                        D
         I'm just following the road
                  G
For a walk in the sun
                  A
For a walk in the sun

Bridge

Bm
Sitting here watching the world going by
      A
Is it true when we die we go up to the sky
G
Whoa........
G
Whoa........
Bm
So many things that i don't understand
A                                                    G
Burnt feet in the sand when i'm walking in the sun
G
Whoa
                 A     D
Walking in the sun………

Chorus

D D/F# G                           D
          Such a long, long way to go
D D/F# G                         D
         Where I'm going i don't know
D D/F# G                        Bm
         I'm just following the road
                  A2
For a walk in the sun……….
                   A
For a walk in the sun, Yeah

(same chords as verse)
Whoa
Tap to rate this tab
 
# A B C D E F G H I J K L M N O P Q R S T U V W X Y Z