Guitaretab - guitar tabs
Song name
# A B C D E F G H I J K L M N O P Q R S T U V W X Y Z

Mcfly - Sofa Hyundai Administration tab

Mcfly - Comic Relief song on Top Gear
-Sofa, Hyundai, Administration song (Top Gear Blues)

Standard Tuning, e, B, G, D, A, E
[I think this tab is pretty much accurate)

Intro:
|--------------------------------------------|
|--------------------------------------------|
|--------------------------------------------|
|--7-----------------------------------------|
|--7-----------------------------------------|
|--5-----------------------------------------|
    [Let.......................Ring]
  (Sofa, Hyundai, Administration.......yeah!)


Verse:
[Pretty easy, just a basic blues hammer-on power chord]

|----------| x8
|----------|
|----------|
|----------|
|--777-9h--|
|--555-----|

Chorus:

|-------------------------------|
|-------------------------------|
|--7-----------9-----7----------|
|--7-----7-----9-----7-----7----|
|--5-----7-----7-----5-----7----|
|--------5-----------------5----|
    x14   x14   x8    x8    x14

Verse 2:
[ Tab from: http://www.guitaretab.com/m/mcfly/86734.html ]
|------------------------------------------------------------------------------------------------------|
|------------------------------------------------------------------------------------------------------|
|------------------------------------------------------------------------------------------------------|
|--5///////7--------5///////7-----------------5////////7-----------------7------7-----777777777777777--|
|--5///////7--------5///////7-----------------5////////7-----------------7------7-----777777777777777--|
|--3///////5--------3///////5-----------------3////////5-----------------5------5-----555555555555555--|
 (Jeremy's Antique, the hamster just squeaks, james is such a geek and i really wanna know who the...
(Chorus)
..Stig Is


[I havent figured out the solo yet, so try to improvise it, or figure it out yourself by ear]

Verse 3:

(Same as verse 2)

Outro:

|------------------------------------------------------------------------------------------------------------------------------------|
|------------------------------------------------------------------------------------------------------------------------------------|
|--7-----------9-----7-----9-----7-----9---------------------------------7-----------------------------------------------------------|
|--7-----7-----9-----7-----9-----7-----9---------------------------------7-----------------------------------------------------------|
|--5-----7-----7-----5-----7-----5-----7---------------------------------5----------------------------77777777777777777777-------7\--|
|--------5--------------------------------------------------------------------------------------------77777777777777777777-------7\--|
    x14   x14   x8    x8    x8    x8   [Let.....................................................Ring]-55555555555555555555-------5\--|
                                      (Reputation to lose, thats why we siiing.. the top gear.........Bluuuuuuuuuuues............

Enjoy! This is a funny and great song to play!


-By Sam Edwards, aged 14
Related for Sofa Hyundai Administration tab
Advertisement will be closed in 10 seconds