Song name
# A B C D E F G H I J K L M N O P Q R S T U V W X Y Z

Mcfly - Seven Weeks Until The Summer tab

    -----------------------------------------------------------------------------
               Seven weeks until the Summer - Mcfly
-----------------------------------------------------------------------------
Tabbed by: Ailsa C
Email: ailsafern@hotmail.co.uk

Tuning: Standard

INTRO:

       E
e|-----0-----------------------------------------------------------------|
B|-----0-----------------------------------------------------------------|
G|-----1-----------------------------------------------------------------|
D|-----2--------------9--------------------------------------------------|
A|-----2---------9----7--------------------------------------------------|
E|-----0---------7-------------------------------------------------------|

VERSE: (Hammer on and pull off to get 9--11 and 7--9-| etc.
                                      7--7      5--5-|

e|-----------------------------------------------------------------------|
B|-----------------------------------------------------------------------|
G|-----------------------------------------------------------------------|
D|----9—-11-—9--11—-9--11------------------------------------------------|
A|----7--7---7--7---7---7---------7--9--7--9--7--9-----------------------|
E|--------------------------------5--5--5--5--5--5-----------------------|
  Seven weeks until the Summer, My nights are long and sober,

e|-----------------------------------------------------------------------|
B|-----------------------------------------------------------------------|
G|-----------------------------------------------------------------------|
D|-----------------------------------------------------------------------|
A|--11--------------------------------4---6--7-------9-------------------|
E|--9---------------------------------2---4--5-------7-------------------|
   Everybody’s going out and I’m left all a-lone.

e|-----------------------------------------------------------------------|
B|-----------------------------------------------------------------------|
G|-----------------------------------------------------------------------|
D|----9—-11-—9--11—-9--11------------------------------------------------|
A|----7--7---7--7---7---7----------------7--9--7--9--7--9----------------|
E|---------------------------------------5--5--5--5--5--5----------------|
     Is something wrong am..           Working for minimum wages,

e|-----------------------------------------------------------------------|
B|-----------------------------------------------------------------------|
G|-----------------------------------------------------------------------|
D|-----------------------------------------------------------------------|
A|--11----------------------------------------4------6---7-------9-------|
E|--9-----------------------------------------2------4---5-------7-------|
 Been flippin’ burgers now for ages while my friends are home.  Whoah.

e|-----------------------------------------------------------------------|
B|-----------------------------------------------------------------------|
G|-----------------------------------------------------------------------|
D|-----------------------------------------------------------------------|
A|--9--11--9--11--9--11-------------------6--7--6--7--6--7---------------|
E|--7--7---7--7---7--7--------------------4--4--4--4--4--4---------------|
   Hello can I take your...               Yes I’m a loser.

e|-----------------------------------------------------------------------|
B|-----------------------------------------------------------------------|
G|-----------------------------------------------------------------------|
D|-----------------------------------------------------------------------|
A|--7--9--7--9--7-------------4--6--4-----9------------------------------|
E|--5--5--5--5--5-------------2--2--2-----7------------------------------|
   Seven weeks of...          and I’m all down.

CHORUS:
             E
e|-----------0-----------------------------------------------------------|
B|-----------0-----------------------------------------------------------|
G|-----------1---------------8--------------6-----------------4--6-------|
D|-----------2---------------8--------------6-----------------4--6-----9-|
A|-----------2---------------6--------------4-----------------2--4-----9-|
E|-----------0---------------------------------------------------------7-|
It won’t be long, Sunglasses on,It feels so wrong, When Summer’s gone, whoah.


e|------------------0---------------------4------------------------------|
B|------------------0---------------------4------------------------------|
G|------------------1---------------------5------------------------------|
D|------------------2---------------------6------------------------------|
A|------------------2---------------------6------------------------------|
E|------------------0---------------------4------------------------------|
   We’ll sing this song, Dance all night long.

e|-------------------------------------------------------------0---------|
B|-------------------------------------------------------------0---------|
G|-------------------------------------------------------------1---------|
D|-----------11------9-9----7-7-----6-6-----4-----6-7-------7--2-------9-|
A|-----------11------9-9----7-7-----6-6-----4-----6-7-------7--2----9--7-|
E|-----------9-------7-7----5-5-----4-4-----2-----4-5-------5--0----7----|
    Do do do do,    do do,  do do,  do do,  do.  Do do do do do do.


Listen to the song for the strumming pattern.
You use hammer ons and pull offs during the verse (not the chorus).
Tap to rate this tab
# A B C D E F G H I J K L M N O P Q R S T U V W X Y Z