Guitaretab - guitar tabs
Song name
# A B C D E F G H I J K L M N O P Q R S T U V W X Y Z

Mcfly - Motion In The Ocean tab

Highlighted       Show chord diagrams
This is the Motion in the Ocean Tabs :)
Please visit my Youtube account if you wanna see how to play some of these songs :)
Search senetto
thankyou :) xxx

------------------------------------------------------------------------------------------------

   1. We Are the Young
   2. Star Girl
   3. Please, Please
   4. Sorry's Not Good Enough
   5. Bubblewrap
   6. Transylvania
   7. Lonely
   8. Little Joanna
   9. Friday Night
  10. Walk in the Sun
  11. Home Is Where the Heart Is
  12. Don't Stop Me Now (Limited edition only)
  13. Silence Is a Scary Sound (Hidden track)

------------------------------------------------------------------------------------------------

1. WE ARE THE YOUNG.

Tuning: Standard

Intro; D G D A G# G D A

Listen
D
We got a situation

They're always putting us down
               G
We are the generation
                      D
Can't keep us under ground
           A     G# G
Is it my imagination?
                D     A
Or do you feel good?


D
We're on a one - way mission

Oh we can take it all night
             G
We are the sunshine nation
                            D
Girl check the sound and lights
               A  G# G
Is it my imagination?
                 D    A
Oh do you feel good?


Pre-Chorus:
D                                D/F#
What a day, what a day, what a day
G                                
What a day, what a day, what a day
D                                D/F#
What a day, what a day, what a day
G
What a day, these are the days


Chorus:
Em
Running the world
          F#m
It's the time of our lives
G                   A
Baby we won't ever die
         G         A            D
'Cause we're the young we're alright


D
We gotta stop this feeling

'Cause I don't wanna live twice
             G
We'd better start believing
                      D
Before we run out of time
                  A  G# G
Oh is it my imagination?
                D    A
Or do you feel good?


Pre-Chorus:
D                                D/F#
What a day, what a day, what a day
G                                
What a day, what a day, what a day
D                                D/F#
What a day, what a day, what a day
G
What a day, these are the days


Chorus:
Em
Running the world
          F#m
It's the time of our lives
G                   A
Baby we won't ever die
         G         A            D
'Cause we're the young we're alright

**GUITAR SOLO**

D G D A G# G D A

Em
Running the world
         F#m
It's the time of our lives
G                   A
Baby we won't ever die
Em
Fight till we fall
F#m
Standing tall
G               A
Time is on our side
        G         A             D
'Cause we're the young we're alright

D                   G           C
What a day, what a day, what a day
D                   G           C
What a day, what a day, what a day
D                   G           C
What a day, what a day, what a day
D                   G           C
What a day, what a day, what a day

               A    G# G    
Is it my imagination? (No)
                     A   G# G 
I said it's my imagination?(No, no, no, no)
               A   G# G
Is it my imagination?
                               D
We're the young we're alright yeah

--------------------------------------------------------------------------------------------------

2. STAR GIRL.

tuning; standard

E                          F#                        
Hey Iím looking up for my star girl
                          A
I guess Iím stuck in this mad world

Thereís things that I wanna say
                             E
But youíre a million miles away
                          F#
And I was afraid when you kissed me
                        A 
On your intergalactical frisbee

I wonder why, I wonder why
                       B
You never asked me to stay


(NC)        E
Ooh ooh ooh ooh
A                            F#   B
So wouldnít you like to come with me?
            E
Ooh ooh ooh ooh
A                        F#     B
Go surf in the sun as it starts to rise
            E
Ooh ooh ooh ooh
A                               F#  B
Woahhh your gravityís making me dizzy
F#m                     G#m
Girl I gotta tell you I feel much better
A                    B
Make a little love in the moonlight


E                                       F#         
Hey thereís nothing on earth that could save us
                            A 
When I fell in love with ur-anus

I donít wanna give you away
                         E
Coz it makes no sense at all
                    F#
Houston we've got a problem
                                 A
And ground control couldnít stop them

I wonder why, I wonder why
                      B
You never asked me to stay


(NC)        E
Ooh ooh ooh ooh
A                            F#   B
So wouldnít you like to come with me?
            E
Ooh ooh ooh ooh
A                        F#     B
Go surf in the sun as it starts to rise
            E
Ooh ooh ooh ooh
A                               F#  B
Woahhh your gravityís making me dizzy
F#m                     G#m
Girl I gotta tell you I feel much better
A                    B
Make a little love in the moonlight


Cmaj7
     Fly away
                          Fmaj7
Watch the night turn into day
                   Fmaj7
Dance on the Milky Way

        C                  D                   A
Melt me with your eyes the star girl rules the sky
        B          D
                           One, two, one two three four!

E                        F#

                          A

E                        F#
   Iím looking up for my star girl
                          A
I guess Iím stuck in this mad mad world

Thereís things that I wanna say
                             B
But youíre a million miles away


(NC)        E
Ooh ooh ooh ooh
A                            F#   B
So wouldnít you like to come with me?
            E
Ooh ooh ooh ooh
A                        F#     B
Go surf in the sun as it starts to rise
            E
Ooh ooh ooh ooh
A                               F#  B
Yeah wouldnít you like to come with me?
F#m                     G#m
Girl I gotta tell you I feel much better
A                     B
I canít get enough of you
F#m               G#m
Galaxy defenders, stay forever
A                        B
Iíll never get enough of you
E

-------------------------------------------------------------------------------------------
 
3. PLEASE PLEASE.

tuning; standard

B        A                     B      A
Set the scene, I think I'm in love now
      B         A
Your eyes are green 
               B       A
You come from above now
E     D                     E    D
Easy girl, I think we're alone now
               E             D
Let's get the motion in the ocean
                   E      D
So turn off your phone now


B
I wanna put my hands on your skin
E
Underneath the clothes that you're in
F#
So kick of your shoes
              F#
Let the fun begin


 B        F#      E
[Please, Please, Please]

C, C, C, Come home with me now
 B        F#      E
[Please, Please, Please]

M, M, M, Must be a dreamer
 B        F#      E
[Please, Please, Please]
                  A     F#
I wanna get with you


Please please Lindsay please
|------------------------------------------------|
|------------------------------------------------|
|------------7-7---------------------------------|
|-9\---4-4---7-7--7-7--9-9--9-9--9-9--9-9--------|
|-9\---4-4---5-5--7-7--9-9--9-9--9-9--9-9--------|
|-7\---2-2--------5-5--7-7--7-7--7-7--7-7--------|


Verse 2:
B    A                  B     A
Sunsets, the colour of fire
E         D                      E    D
Yeah redhead, you're taking me higher


Bridge:
B
I'm not sure what's happening to me
E
If you were a god then I will believe
F#                                   F#
You love yourself more then you love me


Chorus:
 B        F#      E
[Please, Please, Please]

C, C, C, Come home with me now
 B        F#      E
[Please, Please, Please]

M, M, M, Must be a dreamer
 B        F#      E
[Please, Please, Please]
                  A     F#
I wanna get with you
 B        F#      E
[Please, Please, Please]

C, C, C, Come home with me now
 B        F#      E
[Please, Please, Please]

Oh, you got me thinking of England
 B        F#      E
[Please, Please, Please]
                  A     F#
I wanna get with you


Please please Lindsay please
|------------------------------------------------|
|------------------------------------------------|
|------------7-7---------------------------------|
|-9\---4-4---7-7--7-7--9-9--9-9--9-9--9-9--------|
|-9\---4-4---5-5--7-7--9-9--9-9--9-9--9-9--------|
|-7\---2-2--------5-5--7-7--7-7--7-7--7-7--------| 

Please please Lindsay please
|-----------------------2-------2-------|
|-----------------------2-------2-------|
|------------7-7--------3-------3-------|
|-9\---4-4---7-7--7-7---4-------4-------|
|-9\---4-4---5-5--7-7---4-------4-------|
|-7\---2-2--------5-5---2-------2-------|


Interlude: Ba Ba Ba Ba
|-------------------------------------------------|
|-------------------------------------------------|
|-4--4--4--4--------------------------------------|
|-4--4--4--4--4------------3--4--5--6--7--8--9----|
|-2--2--2--2--4------------3--4--5--6--7--8--9----|
|-------------2----------0-1--2--3--4--5--6--7----|


Verse 3:
Db5  B5                Db5     B5
Girl,  I'm talking to you now
F#5  E5                   F#5      E5
Girl,  I thought that you knew now

Play during Verse 3:
|------------------------------------------------|
|------------------------------------------------|
|------------------------------------------------|
|-----6-6--------------------6-6-----------------|
|-8-8-----8-9------------8-8-----8-9-------------|
|-------------6-7-8-9----------------6-7-8-9-----|


Bridge:
Db5
I wanna run my hands through your hair
F#
Cover the room with your underwear
Ab                                    Ab
Wanted to make it out like we don't care


[Instrumental Chorus]


Chorus:
 Db5      Ab      F#
[Please, Please, Please]

C, C, C, Come home with me now
 Db5      Ab      F#
[Please, Please, Please]

Oh, you got me thinking of England
 Db5      Ab      F#
[Please, Please, Please]
                  B5    
I wanna get with you
           Ab
Yeah, you know I do


Please please Lindsay please
|--------------------------------------------------|
|--------------------------------------------------|
|------------9-9-----------------------------------|
|-11\--6-6---9-9--9-9---11-11--11-11--11-11--11-11-|
|-11\--6-6---7-7--9-9---11-11--11-11--11-11--11-11-|
|-9=\--4-4--------7-7---9--9---9--9---9--9---9--9--| (x2)

|----------------------|
|----------------------|
|------------9-9-------|
|-11\--6-6---9-9--9-9--|
|-11\--6-6---7-7--9-9--|
|-9=\--4-4--------7-7--| (x2)

|--------------------------|
|--------------------------|
|----------------------6\--|
|-11\--6-6---4-4--4----6\--|
|-11\--6-6---4-4--4----4\--|
|-9=\--4-4---2-2--2--------|

----------------------------------------------------------------------------------------

4. SORRYS NOT GOOD ENOUGH

tuning; standard

A
Good, Good, Good, Good enough
D
Good, Good, Good enough
G
Good, Good, Good enough
D
Good, Good


Verse 1:
A2     A                        D
Canít stop I canít stop loving you
A2         A                              D
Youíre a dreamer and dreamingís what you do
  Bm                         C#m
I canít stop believing that this is the end
       D               E
There must be another way
      Bm                      C#m                 E
Cause I couldnít handle the thought of you going away

Whoa, Yeah


Chorus:
A
Sorryís not good enough
F#m
Why are we breaking up
D                                         E
Cause I didnít treat you rough so please donít go changing
A
What was I thinking of
F#m
When you said youíre out of love
D                                    G           E
So baby donít call this off because sorryís not good enough


Verse 2:
A2     A                         D
Donít stop all those things you do
A2      A                                 D
Iím a believer and thatís what gets you through
Bm                              C#m
I canít fight this feeling that this is the end
Bm
Weíre in the thick of it
D                   E
When will this ever end
(keep strumming E)
Whoa, Whoa


A
Sorryís not good enough
F#m
Why are we breaking up
D                                         E
Cause I didnít treat you rough so please donít go changing
A
What was I thinking of
F#m
When you said youíre out of love
D                                    G           E
So baby donít call this off because sorryís not good enough


Bridge:
Bm
For you said youíd never leave me
C#m
Be there to hold and please me
A                                C#m
Sorryís just not good enough for you
          D                                      A
Everybody makes mistakes and thatís just what we do


A
Donít go changing
F#m
Donít go changing
D
Donít go changing
E
Donít go changing     (x2)


A
Donít go changing (sorryís not good enough)
F#m
Donít go changing (sorryís not good enough)
D
Donít go changing (sorryís not good enough)
E
Donít go changing


Chorus:
A
Sorryís not good enough
F#m
Why are we breaking up
D                                         E
Cause I didnít treat you rough so please donít go changing
A
What was I thinking of
F#m
When you said youíre out of love
D                                    G           E
So baby donít call this off because sorryís not good enough

G            E
Sorryís not good enough
G            E            A2  A
Sorryís not good enough

------------------------------------------------------------------------------------------

5. BUBBLEWRAP.

INTRO:

D  A/C# Bm A G  Asus4 A 
A


Verse:

D                    D/C#       Bm Bsus2 Bm
I wish I could Bubble Wrap my heart,
   A/C#  D     D/C#      Bm Bsus2 
 A
In case I fall and break apart,
D                    D/C#        Bm Bsus2 Bm
I'm not God I can't change the stars,
A/C#            D     D/C#      Bm Bsus2 Bm
And I don't know if there's life on Mars,

BRIDGE:

  A      G
But I know you're hurt,
                                      Bm, Bsus2 Bm
People that you love and those who care for you,
        Em                                      A7
I want nothing to do with the things you're going through.


CHORUS

             D     Dmaj7
This is the last time,
                    Bm Bsus2
I give up this heart of mine,
                 G
I'm telling you that I'm,
                     Asus4     A
A broken man who's finally realised,
              D     Dmaj7
You're standing in moonlight,
                      Bm Bsus2
But you're black on the inside,
             G  G/F#      Em        A7       C
Ooo oo oo ooo, Do you think you are to cry?
             D
This is goodbye.

LINK

D  D/C#  D  A/C#


Verse:

D                  D/C#        Bm Bsus2 Bm
I'm a little dazed and confused, ,
   A/C#  D     D/C#      Bm Bsus2 
 A
Coz life's a bitch and so are you,
D                    D/C#        Bm Bsus2 Bm
All of my days have turned into nights
       A/C#            D     D/C#      Bm 
Bm
Cos living without, without, without you in my life,

BRIDGE:

  A      G
And you wrote the book on how to be a liar,
         Bm, Bsus2 Bm
And lose all your friends,
        Em
Did I mean nothing at all?
                             A7
Was I just another ghost that's been in your bed?.

CHORUS

             D     Dmaj7
This is the last time,
                    Bm Bsus2
I give up this heart of mine,
                 G
I'm telling you that I'm,
                     Asus4     A
A broken man who's finally realised,
              D     Dmaj7
You're standing in moonlight,
                      Bm Bsus2
But you're black on the inside,
             G  G/F#      Em        A7       C
Ooo oo oo ooo, Do you think you are to cry?
             D
This is goodbye.


MIDDLE:


Bb
Turn on the radio honey,
          C                                  D
Cos every single sad song you'll be able to relate!

Bb
Don't get all emotional baby,
         Ab                                    A
You can never talk to me your unable to communicate!


CHORUS:

             D     Dmaj7
This is the last time,
                    Bm Bsus2
I give up this heart of mine,
                 G
I'm telling you that I'm,
                     Bb     C
A broken man who's finally realised,

SECOND PART SUNG BY DANNY:


         F        Fmaj7
This is the last time,
                 Dm  Dsus2
I give up this heart of mine,
                Bb
I'm telling you that I'm,
                           Csus4    C
A broken man who's finally realised,
             F        Fmaj7
You're standing in moonlight,
                    Dm  Dsus2
But you're black on the inside,
             Bb  Bb/A   Gm      C7     Eb
Ooo oo oo ooo,Do you think you are to cry?
         F
This is goodbye.

ENDING: Play chords over Orchestra.

F Dm  Bb Eb  F


This is Goodbye

------------------------------------------------------------------------------------------

6. TRANSYLVANIA

e|---0--------0--------0-------0-----|
B|---0--------1--------2-------1-----|
G|---0--------0--------0-------0-----|
D|---2--------2--------2-------2-----|          X2
A|---2--------2--------2-------2-----|
E|---0--------0--------0-------0-----|

Em               B7
Anne Boleyn she kept a tin,
      Em                  B7
Which all her hopes and dreams were in,
      C           Am              F#        B7
She plans to run away with him, forever (never to be seen again)
Em                  B7
Leaves a note and starts to choke,
     Em                  B7
Can feel the lump that's in her throat,
        C              Am                 F#
It's raining and she leaves her coat in silence.

B7
We're sorry but we disagree
B7
The boy is vermin, can't you see?
B7
We'll drown his sins and misery
B7
And rip him out of history

Em                      Bm
People marching to the drums,
                    C                   G      G/F#
Everybody's having fun to the sound of love,
Em                      Bm
Ugly is the world we're on
                            Dm
If I'm right then prove me wrong
                 G
I'm stunned (to find a place we belong)

C            G
Who is your lover,
            Am
I couldn't tell,
                   G
When hell freezes over,
               C
That's when I tell,
              G
Who is your lover,
            B7
I couldn't tell,
                Em
When will this stop.

Em              B7
Racing, pacing, in the dark,
      Em                B7
She's searching for a lonely heart,
      C                Am
She finds him but his heart had stopped,
      F#
She breaks down.

B7
Sorry but your majesty,
B7
Refusing orders from the queen
B7
Results in a monstrosity
B7
Remembers a voice and hears him sing

Em                      Bm
People marching to the drums,
                    C                   G      G/F#
Everybody's having fun to the sound of love,
Em                      Bm
Ugly is the world we're on
                             Dm
If I'm right then prove me wrong
                  G
I'm stunned (to find a place we belong)

C             G
Who is your lover,
            Am
I couldn't tell,
                   G
When hell freezes over,
               C
That's when I tell,
              G
Who is your lover,
            B7
I couldn't tell,
                Em
When will this stop.

[Guitar solo] - Em - Bm - C - G - G/F# X2

Em
People marching to the drums,
          Bm        C                    G       G/F#
Everybody's having fun to the sound of love,
Em                      Bm
Ugly is the world we're on
                             C
If I'm right then prove me wrong
                 G      G/F#
I'm stunned (to find a place we belong)

C             G
Who is your lover,
            Am
I couldn't tell,
                   G
When hell freezes over,
               C
That's when I tell,
              G
Who is your lover,
            Am
I couldn't tell,
                   G
When hell freezes over

C                        G
People marching to the drums
            Am
I couldn't tell,
                   G
When hell freezes over,

That's when I...
C                        G
People marching to the drums
                 B7
I couldn't teeeeeeeeell...
                Em
When will this stop.

------------------------------------------------------------------------------------------

7. LONELY

so CAPO 1st fret on this one!

INTRO:

C (Cadd9) C  Em (Em/C) Em
C (Cadd9) C Em


VERSE:


C (Cadd9) C       Em (Em/C) Em
It's only been a day
Dm                G    Gsus4
But it's like I can't go on
C (Cadd9) C       Em (Em/C) Em
I just wanna say
Dm                        G  Gsus4
I never meant to do you wrong


BRIDGE:


F                    G
And I remember you told me baby
C       C/B         Am Asus2 Am
Something's gotta give
Dm         Dm   Dm/C# Dm/C  Dm/B
If I can't be the one to hold you baby
F                     G
I don't think I could live


CHORUS:


           C
Now I'm so sick of being lonely
        Am
This is killing me so slowly
Dm
Don't pretend that you don't know me
        G
That's the worst thing you could do
        C
Now I'm singing such a sad song
           Am              Asus2
These things never seem the last long
             Dm   Dm/C# Dm/C  Dm/B
Something that I never planned on
          G            Fm             C
Help me baby, I'm so sick of being lonely


VERSE:


C                      Em
Your stuff's in my house
Dm                G    Gsus4
So many things I can't ignore
C                      Em
Clothes still on the couch, yeah
Dm                G    Gsus4
Your photo's on my freezer door


BRIDGE:

F                    G
And I remember you told me baby
C       C/B         Am Asus2 Am
Something's gotta give
Dm         Dm   Dm/C# Dm/C  Dm/B
If I can't be the one to hold you baby
F                     G
I don't think I could live


CHORUS:

           C
Now I'm so sick of being lonely
        Am
This is killing me so slowly
Dm
Don't pretend that you don't know me
        G
That's the worst thing you could do
        C
Now I'm singing such a sad song
           Am              Asus2
These things never seem the last long
             Dm   Dm/C# Dm/C  Dm/B
Something that I never planned on
          G            Fm             Am
Help me baby, I'm so sick of being lonely


MIDDLE:

Am              F
wa wa wa wa wa, wa wa wa wa wa
C                G
wa wa wa wa wa, wa wa wa wa wa

I am so lonely

Am              F
wa wa wa wa wa, wa wa wa wa wa
C                G
wa wa wa wa wa, wa wa wa wa wa


BRIDGE:

F                    G
And I remember you told me baby
C       C/B         Am Asus2 Am
Something's gotta give
Dm         Dm   Dm/C# Dm/C  Dm/B
If I can't be the one to hold you baby
F                     G
I don't think I could live


CHORUS:

           C
Now I'm so sick of being lonely
        Am
This is killing me so slowly
Dm
Don't pretend that you don't know me
        G
That's the worst thing you could do
        C
Now I'm singing such a sad song
           Am              Asus2
These things never seem the last long
             Dm   Dm/C# Dm/C  Dm/B
Something that I never planned on
          G            Fm            C
Help me baby, I'm so sick of being lonely

ENDING:

           Am
I am so lonely
        Dm  Fm  C
I am so lonely...

------------------------------------------------------------------------------------------

8. LITTLE JOHANNA.
[ Tab from: http://www.guitaretab.com/m/mcfly/97883.html ]
G                            F
Little Joanna's got big blue eyes
G                                F
Coconut cream and coffee colored thighs
        C                D
I could die lying in her arms
      Fm                  C
where castles are made of sand
E           Am
We start to dance
             D7                                          F     G
But only the music is bleeding when crickets replace the band


[CHORUS:]
                C     G         C
She will always be my sunkissed trampoline,
         F                 C
She goes up and down in my heart,
       G          C
Turned into jelly beans
        F                        C        D7    F
G
And I'm starting to believe that danger's never near,
               C
When Joanna is here.


(piano bits)

(orchestra part goes run down like this (i think)):

C , B , Bb , A
G , G# , A


(note: the 2nd VERSE and the following CHORUS basically has the SAME CHORDS as verse 1,
2 FRETS HIGHER)

A                                G
Little Joanna's like a lazerbeam sky.
A                              G
Her gluteus maximus like a firefly
           D            E
And That's why I'm kissaphobic
     Gm                   D     F#       Bm
Well cellulite dreams are made, like lemonade,
             E7                                            G      A
But when the shivers are salty and seafoam's the colour of space.


[CHORUS:]
D                     A               D
She will always be my sunkissed trampoline,
         G                 D
She goes up and down in my heart,
        A         D
Turned into jelly beans
        G                        D        E7    G
 A
And I'm starting to believe that danger's never near,
               Bm
When Joanna is here.


            G
God, I love Joanna
    F#             D
But she don't understand much
       G           C
I love it when our hands touch
A                B
Knowing that I'm near
               G
Apple-flavored lip gloss
F#             D
Gillies wear a necklace
G                 C
Feeling young and reckless
A        E     A
When Joanna is here


(note: the 3rd VERSE is, again, the same as 1st verse, 2 FRETS HIGHER)

A                            G
Little Joanna's got big blue eyes
        D                E
I could die lying in her arms
      Gm                  D
where castles are made of sand
F#          Bm
We start to dance
             E7                                          G
But only the music is bleeding when crickets replace the band


(note: this chorus has the SAME CHORDS as the 1st chorus, but 1 FRET LOWER)

[CHORUS:]
F#              B     F#              B
She will always be my sunkissed trampoline,
         E                 B
She goes up and down in my heart,
       F#         B
Turned into jelly beans
        E                        B        C#7   E
 F#
And I'm starting to believe that danger's never near,
               B
When Joanna is here

F# , B , E , B (repeat until end)

------------------------------------------------------------------------------------------

9. FRIDAY NIGHT.

Capo 2nd Fret 


Intro Riff: (Relative to Capo)
  D                        D/F#       G
|----------------------------------------------------------|
|-3-3-3-3--3-3-3-3--3-3-3---3-3-3-3------------------------|
|-2-2-2-2--2-2-2-2--2-2-2---2-2-2-2---0-0-0-0--------------|
|-0-0-0-0--0-0-0-0--0-0-0---0-0-0-0---0-0-0-0--------------|
|---------------------------x-x-x-x---2-2-2-2----2-2---2---|
|---------------------------2-2-2-2---3-3-3-3----0-0-3-0---| (x2)

(Chords relative to capo)

Verse:
D
Sleeping through the day 'cause I work all night
D/F#                        G
Get out the way things are coming a-live
D
Look over there, another fight
D/F#                              G
I guess I should've have seen the warning signs


Chorus: (Play main riff)
D
We could be together (Im not looking for a fight)
D/F#              G
Change the world forever (just wanna make it through the night)
D                                                    D/F#                   G
Make it all seem better (they're really giving me the eye-ey-eye-ey-eye-ey-eye)



Think Im gonna lose it, lose it, lose it
Think Im gonna lose it, lose it, lose it

|----------------------------------------------------------------------|
|-------------3-3-3-3--3-3-3-3--3-3-3---3-3-3-3------------------------|
|-------------2-2-2-2--2-2-2-2--2-2-2---2-2-2-2---0-0-0-0--------------|
|-------------0-0-0-0--0-0-0-0--0-0-0---0-0-0-0---0-0-0-0--------------|
|-2-2---2-------------------------------x-x-x-x---2-2-2-2----2-2---2---|
|-0-0-3-0-------------------------------2-2-2-2---3-3-3-3----0-0-3-0---|

Think Im gonna lose it


Verse 2:
D
The walls are growing ears, Im paranoid
D/F#                      G
No need to fear what you cant avoid
D
Dont let 'em in, dont let 'em out
D/F#                             G
I'll give you something you can scream about



Chorus: (Play main riff)
D
We could be together (Im not looking for a fight)
D/F#              G
Change the world forever (just wanna make it through the night)
D                                                    D/F#                   G
Make it all seem better (they're really giving me the eye-ey-eye-ey-eye-ey-eye)


Think Im gonna lose it, lose it, lose it
Think Im gonna lose it
|-2-2-2--------|
|-3-3-3--------|
|-2-2-2--------|
|-0-0-0--------|
|--------------|
|--------------|
Think Im gonna lose it, lose it, lose it
                    A
Think Im gonna lose it



Bridge: (riffs not relative to capo)
Bm             G                     A
No, no, no, nothing's wrong with dreaming
|------------------------------------|
|-16b17r-----------------------------|
|--------16----16-17b18-17b18--------|
|-----------16-----------------------|
|------------------------------------|
|------------------------------------|
Bm                  G           A
Go, go, go you're dreaming all away
|-----------------------------------|
|-16b17r-17-19-16--20b21-20b21=-----|
|-----------------------------------|
|-----------------------------------|
|-----------------------------------|
|-----------------------------------|
Bm         G        A
One love, one life, and thats enough to get you through the night
|------------------------------------|
|-16b17r-----------------------------|
|--------16----16-17b18-17b18--------|
|-----------16~----------------------|
|------------------------------------|
|------------------------------------|
Bm               G             A
Tomorrow's gonna be a brighter day
A
Hey, hey, hey



Think Im gonna lose it, lose it, lose it
Think Im gonna lose it
|-2-2-2--------|
|-3-3-3--------|
|-2-2-2--------|
|-0-0-0--------|
|--------------|
|--------------|
Think Im gonna lose it, lose it, lose it
Think Im gonna lose it
|-2-2-2--------|
|-3-3-3--------|
|-2-2-2--------|
|-0-0-0--------|
|--------------|
|--------------|
(x2)


Chorus: (Play main riff)
D
We could be together (Im not looking for a fight)
D/F#              G
Change the world forever (just wanna make it through the night)
D                                                      A
Make it all seem better (they're really giving me the eye)


Bridge: (riffs not relative to capo)
Bm             G                     A
No, no, no, nothing's wrong with dreaming
|------------------------------------|
|-16b17r-----------------------------|
|--------16----16-17b18-17b18--------|
|-----------16-----------------------|
|------------------------------------|
|------------------------------------|
Bm                  G           A
Go, go, go you're dreaming all away
|-----------------------------------|
|-16b17r-17-19-16--20b21-20b21=-----|
|-----------------------------------|
|-----------------------------------|
|-----------------------------------|
|-----------------------------------|
Bm         G        A
One love, one life, and thats enough to get you through the night
|-----------------------------------|
|-16b17r-17-17s19--17-16------------|
|------------------------18---------|
|-----------------------------------|
|-----------------------------------|
|-----------------------------------|
Bm               G             A
Tomorrow's gonna be a brighter day
|--------------------------------------------------------|
|-5s==17-17-17-16-16-16----------------------------------|
|-----------------------16-16-16-------------------------|
|--------------------------------16-16-16-16-16-16-16----|
|--------------------------------------------------------|
|--------------------------------------------------------|
A
Hey, hey, hey
|--------------------------------------------------------|
|-----17-17-17-16-16-16----------------------------------|
|-----------------------16-16-16-------------------------|
|--------------------------------16-16-16-16-16-16-16----|
|--------------------------------------------------------|
|--------------------------------------------------------|


Outro:
D
They come alive when I work the nights
D
I guess I should've seen the warning signs

------------------------------------------------------------------------------------------

10. WALK IN THE SUN.

capo 4th

Verse:
D                               G
I wonder what it's like to be loved by you
D                              A7
I wonder what its like to be whole
D                                G
And I don't walk when there's a stone in my shoe
       D             A            G   D
All I know, that in time I'll be fine
D                           G
I wonder what it's like to fly so high
D                        A7
Or to breathe under the sea
D                            G
I wonder if someday I'll be good with goodbyes
             D           A              G   D
But I'll be okay if you come along with me



Chorus:
G                        D
Such a long, long way to go
G                        D
Where I'm going I don't know
G                       D
I'm just following the road
            A      G
For a walk in the sun
                  A7
For a walk in the sun


Verse:
D                        G
I wonder how they put a man on the moon
D                           A7
I wonder what it's like up there
D                        G
I wonder if you'll ever sing this tune
       D            A             G  D
All I know is the answers in the air



[Chorus]


Bridge:
Bm      
Sitting and watching the world going by
       A
Is it true when we die we go up to the sky?
G
Whoa, Whoa
Bm
So many things that I don't understand
        A                                        G
Put my feet in the sand when I'm walking in the sun
               A7
Walking in the sun


[Play Chorus]

------------------------------------------------------------------------------------------

11. HOME IS WHERE THE HEART IS.

Intro:
|-----------------------------0-----------0--------------------------------------------|
|-----3--------------3--3---3---3---3---3---3-------------------------3----------------|
|-----------2--------2----2-------2---2-------2---------0-----0-----0---0--------------|
|-3p0---------3b3.5--0--------------------------------2-----0-----0-------0-----3b3.5--|
|-------3p0-------------------------------------0-2-3-----2-----1-----------3p0--------|
|--------------------------------------------------------------------------------------|

Verse:
|----------0-----------0-----------------0-----------0---------------------------------|
|-3--3---3---3---3---3---3---1--3--3---3---3---3---3---3-------------------------3-----|
|-2----2-------2---2-------2-0--2----2-------2---2-------2---------0-----0-----0---0---|
|-0--------------------------2--0--------------------------------2-----0-----0-------0-|
|----------------------------3-----------------------------0-2-3-----2-----1-----------|
|--------------------------------------------------------------------------------------|

|---------------------0-----------0------------|
|-1----------3--3---3---3---3---3---3---1------|
|-0-0--------2----2-------2---2-------2-0------|
|-2-0--------0--------------------------2------|
|-3-0-----------------------------------3------|
|-----1b1.5------------------------------------|

|----------0-----------0-----------------0-----------0---------------------------------|
|-3--3---3---3---3---3---3---1--3--3---3---3---3---3---3-------------------------3-----|
|-2----2-------2---2-------2-0--2----2-------2---2-------2---------0-----0-----0---0---|
|-0--------------------------2--0--------------------------------2-----0-----0-------0-|
|----------------------------3-----------------------------0-2-3-----2-----1-----------|
|--------------------------------------------------------------------------------------|

|---------------------0------------------------2------|
|-1----------3--3---3---3-------3--------------3------|
|-0-0--------2----2-------2-----------2--------2------|
|-2-0--------0--------------3p0---------3b3.5--0------|
|-3-0-----------------------------3p0-----------------|
|-----1b1.5-------------------------------------------|


Verse:
D                            C
I'm a lover I'm not a fighter,
D                                     C G Bb             D
Hold me close and I'll take you higher than you've ever been,
D                                    C
Raise your hands and lay down your weapons,
D                                 C G Bb
We could turn this around in seconds flat,
         D
If we believe.


Chorus:
D                  Cadd9
Home is where the heart is,
                G
It's where we started,
           D
Where we belong, singing.
D                  Cadd9
Home is where the heart is,
                G
It's where we started,
           D
Where we belong.


Verse:
D                            C
Light a fire and write a sonnet,
D                                     C G Bb                   D
Pin your hopes and your dreams upon it now, come and sing with us
D                                   C
Calling out to your children's children,
D                                   C G Bb
Let there be love and let them scream it loud,
                    D
Before we bite the dust.


Chorus:
D
Oh, come on
D                  Cadd9
Home is where the heart is,
                G
It's where we started,
           D
Where we belong, singing.
D                  Cadd9
Home is where the heart is,
                G
It's where we started,
           D
Where we belong.


Bridge:
Em
In these troubled days of anger,
G
We're afraid of every stranger,
A
But today we're changing history,
G
It's OK to sing it with me



Now's your chance think of your lovers,
We are all sisters and brothers.
Now's your chance think of your lovers,
We are all sisters and brothers.
Now's your chance think of your lovers,
We are all sisters and brothers.


Guitar Solo: (2:29)
|-----------------------------------------------17-------------------------------------|
|-----15-17-17b19-17b19r-15-15~-----15-17-17b19----17b19r-15-15~-----------------------|
|-/16----------------------------16------------------------------------7-----7-----7---|
|------------------------------------------------------------------7h9---7h9---7h9-----|
|--------------------------------------------------------------------------------------|
|--------------------------------------------------------------------------------------|

|--------------------------------------------------------------------------------------|
|---------------10-------------17b19rp15----15-17b19rp15----15-17b19rp15-----20b22rp18-|
|-7-9-9b11r-7------9b11r-7~--------------17--------------17--------------17------------|
|-------------9------------------------------------------------------------------------|
|--------------------------------------------------------------------------------------|
|--------------------------------------------------------------------------------------|

|--------------------------------------------------------------------------------------|
|----18----18h20~---10-12-12b14rp10----10----------------------------------------------|
|-19----19--------------------------12----10-----10h12-10------------------------------|
|--------------------------------------------12~----------12-10h12~-10----10-----------|
|----------------------------------------------------------------------12----12s10--8--|
|--------------------------------------------------------------------------------------|

|------------------------------------|
|------------------------------------|
|------------------------------------|
|-----------------/12-12-----12-12~--|
|----10----8s9~-----------12---------|
|-10----10---------------------------|



Heavy Riff: (3:08)
|---------------------------------------|
|---------------------------------------|
|---------------------------------------|
|---5-7---8-7---5-7-----5---------------|
|-5-----5-----5-----5-8---5-7-8-7-------|
|---------------------------------------| (x4)


[Repeat Chorus]



Outro:
|--------------------------------------------------|
|---------------------------------------3----------|
|-----0-----0---------------------------2----------|
|---2-----0-----------------------------0----------|
|-3-----2-----1--------------3p0-------------------|
|--------------------------------1b1.5-------------|

------------------------------------------------------------------------------------------

12. DONT STOP ME NOW (LIMITED EDITION).

Tonight, I'm gonna have myself a real good time
I feel alive, and the world, is turning inside out, yeah
i'm floating around in ecstasy, so don't stop me now
  Gm    F  C              Gm7                 C
Don't stop me 'cause I'm having a good time, having a good time.

        F                               Am           Dm
I'm a shooting star leaping through the sky, like a tiger
             Gm        C
defying the laws of grafity
       F                  Am                Dm
I'm a racing car, passing by, like lady Godiva
        Gm             C                 F
I'm gonna go, go, go,there's no stopping me

     F7                  Bb         Gm7
I'm burning through the sky, yeah, 200 degrees,
                 D7                  Gm
that's why they call me Mister Fahrenheit
     D7                         Gm
I'm travelling at the speed of light.
                Bb   F    Bb      G7   C
I wanna make a supersonic man out of you

 F     Gm  Am  Dm                      Gm7
        C
Don't stop me now, I'm having such a good time, I'm having a ball
 F    Gm  Am  Dm                       Gm7
          D7
Don't stop me now, if you wanna have a good time, just give me a call
Gm    F    C           Gm
Don't stop me cause I'm having a good time
Gm     F   C           Gm
                   Bbm7  F
Don't stop me, yes I'm having a good time, I don't want to stop at all

        F                               Am           Dm
I'm a rocket ship, on my way to mars, on a collision course
        Gm                    C
I am a satellite, I'm out of control
        F                   Am               Dm
I'm a sexmachine, ready to reload, like an atombomb
          Gm          C     F
about to oh, oh, oh, oh, to explode

     F7                  Bb         Gm7
I'm burning through the sky, yeah, 200 degrees,
                 D7                  Gm
that's why they call me Mister Fahrenheit
     D7                         Gm
I'm travelling at the speed of light.
                Bb   F    Bb      G7   C
I wanna make a supersonic man out of you

Drum and clap solo thingy break lol

Don't stop me, don't stop me, don't stop me, hey hey hey
Don't stop me, don't stop me, oh oh oh
Don't stop me, don't stop me, have a good time, good time
Don't stop me, don't stop me, Ahhhhh

*Guitar solo* working on it

       F7                  Bb         Gm7
Oh I'm burning through the sky, yeah, 200 degrees,
                 D7                  Gm
that's why they call me Mister Fahrenheit
     D7                         Gm
I'm travelling at the speed of light.
                Bb   F    Bb      G7   C
I wanna make a supersonic man out of you

 F     Gm  Am  Dm                      Gm7
        C
Don't stop me now, I'm having such a good time, I'm having a ball
 F    Gm  Am  Dm                        Gm7
           D7
Don't stop me now, if you wanna have a good time, just give me a call
Gm    F    C           Gm
Don't stop me cause I'm having a good time
Gm     F   C           Gm
Don't stop me, yes I'm having a good time,
Gm    F       C       Gm
Dont stop me yeah im having a good time
C                         Bbm7 F
and I don't want to stop at all


------------------------------------------------------------------------------------------

13. SILENCE IS A SCARY SOUND (HIDDEN TRACK)

Intro:(0:08)
|--------------------------------------------------------------|
|--------------------------------------------------------------|
|-9--9-9-9-9--9-9-9-9-9--10-10-10-10-10--12--12-12-12-12-12----|
|-x--x-x-x-x--x-x-x-x-x--x--x--x--x--x----x---x--x--x--x--x----|
|-7--7-7-7-7--7-7-7-7-7--8--8--8--8--8---10--10-10-10-10-10----|
|--------------------------------------------------------------| (x2)
Intro Riff: (0:17)
|------------------------------------------------------------|
|------------------------------------------------------------|
|------------------------------------------------------------|
|------6-4-----------------7-6~---6-4------------------------|
|-7--7-----7-6-4--0-0-0-0-------7-----7-6-4p0-0-4p0-0-6--7~--|
|------------------------------------------------------------|
              PM|--------|

|------------------------------------------------------------|
|------------------------------------------------------------|
|------------------------------------------------------------|
|---6-4-----------------7-6~---6-4---------------------------|
|-7-----7-6-4--0-0-0-0-------7-----7-6-4p0-0-4p0-0-0-0-4p0-0-|
|------------------------------------------------------------|
            PM|-------|

|--------------|
|--------------|
|--------------|
|--------------|
|-4p0-0-6--7~--|
|--------------|


VERSE 1
E               G#m
I look into the sky  
                   A
And I have to ask why  
               B
She'd go and leave me  
     E                      G#m
Oh, why do feelings have to die  
                   A
Is it all just a sign    
              B
Of what its meant to be  

(Play this riff during Verse 1)
|-16----16----16----16----16------14----14----14----14----14------|
|---17----17----17----17----17------16----16----16----16----16----|
|-----16----16----16----16----16------16----16----16----16----16--|
|-----------------------------------------------------------------|
|-----------------------------------------------------------------|
|-----------------------------------------------------------------|

|-12----12----12----12----12-------11----11----11----11----11-----|
|---14----14----14----14----14-------12----12----12----12----12---|
|-----14----14----14----14----14-------11----11----11----11----11-|
|-----------------------------------------------------------------|
|-----------------------------------------------------------------|
|-----------------------------------------------------------------|
   
BRIDGE
      A        B
Well I'm just too excited  
E               C#m
The end of this can be sighted  
A              B
She's overdue for a breakout  
G#                C#m
I better go, she blows my brains out  
A
Silence is a scary sound  

CHORUS
E      G#m      C#m      A
Funny feeling happened today  
E         G#m           A  B
Someone buried in the past  
E      G#m       C#m        A
Didn't mean much that much anyway 
E          G#m              A    B   E
I know the love will never last  
   
VERSE 2
E            G#m
I'm torn up inside  
                       A
There's a hole on my mind 
                 B
When you're not next to me  
E                       G#m
So I hope you choke and die  
                 A
On every single lie  
                          B
Let you feel what you've done to me  

BRIDGE
      A        B
Well I'm just too excited  
E               C#m
The end of this can be sighted  
A              B
She's overdue for a breakout  
G#                C#m
I better go, she blows my brains out  
A
Silence is a scary sound 

CHORUS
E      G#m      C#m      A
Funny feeling happened today  
E         G#m           A  B
Someone buried in the past  
E      G#m       C#m        A
Didn't mean much that much anyway 
E          G#m              A    B   E
I know the love will never last   
   
Guitar solo: (2:02)
|---------------------------------------------------------------|
|---------------------------------------------------------------|
|-6-6-6-6-6-6s13--13-13-13-13---4-4-4-4-4-4-4s11--11-11-11-11---|
|-x-x-x-x-x-x--x---x--x--x--x---x-x-x-x-x-x-x--x---x--x--x--x---|
|-4-4-4-4-4-4s11--11-11-11-11---2-2-2-2-2-2-2s=9---9--9--9--9---|
|---------------------------------------------------------------|

|--------------------------------------------------|
|--------------------------------------------------|
|-6-6-6-6--6s8-8-8--4s9-9-9--9s11-11-11-13-13-13-13|
|-x-x-x-x--x-x-x-x--x-x-x-x--x-x--x--x---x--x--x--x|
|-4-4-4-4--4s6-6-6--6s7-7-7--7s9--9--9--11-11-11-11|
|--------------------------------------------------|

|----------------------------------------------------------------------------|
|----------------------------------------------------------------------------|
|-14-13-11-9---6-6-6-6-6-6s13--13-13-13-13---4-4-4-4-4-4-4s11--11-11-11-11---|
|-x--x--x--x---x-x-x-x-x-x--x---x--x--x--x---x-x-x-x-x-x-x--x---x--x--x--x---|
|-12-11-9--7---4-4-4-4-4-4s11--11-11-11-11---2-2-2-2-2-2-2s=9---9--9--9--9---|
|---------------------------------------------------------------------------|-

|---------------------------------------------------|
|---------------------------------------------------|
|-6-6-6-6-6-6-6-6--8-8-8-8-8-8-8-8--9-9-9-9-9-9-9-9-|
|-x-x-x-x-x-x-x-x--x-x-x-x-x-x-x-x--x-x-x-x-x-x-x-x-|
|-4-4-4-4-4-4-4-4--6-6-6-6-6-6-6-6--7-7-7-7-7-7-7-7-|
|---------------------------------------------------|

|--------------------------------|
|--------------------------------|
|-14-14-14-14-14-14-14-14-14-----|
|--x--x--x--x--x--x--x--x--x-----|
|-12-12-12-12-12-12-12-12-12-----|
|--------------------------------|
      A        B
Well I'm just too excited  
E               C#m
The end of this can be sighted  
A              B
She's overdue for a breakout  
G#                C#m
I better go, she blows my brains out  
A
Silence is a scary sound 

Chorus x2 

(3:04)
|--------------------------------------------------------------|
|--------------------------------------------------------------|
|-9--9-9-9-9--9-9-9-9-9--10-10-10-10-10--10--10-10-10-10-10----|
|-x--x-x-x-x--x-x-x-x-x--x--x--x--x--x----x---x--x--x--x--x----|
|-7--7-7-7-7--7-7-7-7-7--8--8--8--8--8----8---8--8--8--8--8----|
|--------------------------------------------------------------|
 
|--------------|
|--------------|
|-------6------|
|-2--6--6--7---|
|-2--6--4--7---|
|-0--4-----5---|

------------------------------------------------------------------------------------------

Thats it me dears :)
Related for Motion In The Ocean tab