Song name
# A B C D E F G H I J K L M N O P Q R S T U V W X Y Z

Mcgraw - High School Hero tab

name : james
email: korn_kings@hotmail.com
band : McGraw
Song : high school hero
Album: Anyone For Monkey Tennis
www.geocities.com/mcgrawrocksus - check it out ffs awesom shit

Tuning : E A D G B E :)

after bass play this - (hold with lotsa distortion)
-------------------------------------------------------------
--------------00000-------------------------------------------
--------------00000------------------------------------------
--7r--5r------33333---------------------------------------
--7r--5r------33333---------------------------------------
--5r--3r------11111-----------------------------------


(could i come and be cool with you pleaseah) awesom bit!!
------------------------------------------------------------
------------------------------------------------------------
-------------------------------------------------------------
---777----11-11-11-----121212------------------------------------
---777----11-11-11-x3--121212--------------------------------------
---555----9--9--9------101010-------------------------------------
Tap to rate this tab
# A B C D E F G H I J K L M N O P Q R S T U V W X Y Z