Song name
# A B C D E F G H I J K L M N O P Q R S T U V W X Y Z

Mcguinn Roger - Dreamland tab

Help us improve GuitareTab! Take a short survey!
                               --+311+--
                               DREAMLAND

TABBER:JOSEPH
EMAIL:BRODEL89@YAHOO.COM
SONG:DREAMLAND
ARTIST:311
ALBUM:ETSD

e|----12~--9--9----7~----12~--9~--14~--12~--------------------------|
B|---12~----9--9--7-----12~--9~--14~--12~---------------------------|
G|------------------------------------------------------------------|
D|------------------------------------------------------------------|
A|------------------------------------------------------------------|
E|------------------------------------------------------------------|

e|----14P13P12-----------------14P13P12-----------------------------|
B|-------------14P13P12-12-12------------14P13P12-------------------|
G|------------------------------------------------13----------------|
D|---------------------------------------------------14P13H14P13H14-|
A|------------------------------------------------------------------|
E|------------------------------------------------------------------|

e|------------------------------------------------------------------|
B|------------------------------------------------------------------|
G|------------------------------------------------------------------|
D|--11-11-----------------------------------------------------------|
A|-----------14-----------------------------------------------------|
E|------------------------------------------------------------------|

WELL I GOT THIS PART DOWN I DONT KNOW IF ITS RIGHT BUT IT STARTS YOU
OFF THE FAST SOLO PART IS KINDA HARD TO FIGURE OUT,IVE ONLY BEEN
PLAYING FOR 3 YEARS AND IM SEVENTEEN YEARS OLD SO GO EASY ON ME
THE OTHER TAB FOR THIS HAS THE SKA PART SO MAYBE YOU GUYS COULD
PUT THE PIECES TOGETHER BUT STILL ITS BETTER THAN THE OTHER ONE.
Related for Dreamland tab