Song name
# A B C D E F G H I J K L M N O P Q R S T U V W X Y Z

Mcguinn Roger - The Time Has Come tab

Help us improve GuitareTab! Take a short survey!
-------------------------------------------------------------------------------
			     THE TIME HAS COME - Hillsong (United)
-------------------------------------------------------------------------------
Tabbed by: Choiboi1113
Email: choiboi1113@gmail.com

This is a pretty easy song. except u have to play super fast. i dont know the
 whole song but i know most of the beginning and im pretty sure its correct.
 When it says repeat it doesnt mean play from the beginning (except the first
 [REPEAT]). o yea. i kinda combined guitar 1 and guitar 2 so it sounds a 
little different at some parts. and in my opinion it sounds a little better. 


~  vibrato

Tuning:

e|---5(x24)-------7(x4)-------9(x4)-------4(x24)--------7(x4)-------9(x4)----|
B|---------------------------------------------------------------------------|
G|---------------------------------------------------------------------------|
D|---------------------------------------------------------------------------|
A|---------------------------------------------------------------------------|
E|---------------------------------------------------------------------------|

e|---2(x24)-------5(x4)-------4(x4)-------0(x32)-----------------------------|
B|---------------------------------------------------------------------------|
G|---------------------------------------------------------------------------|
D|---------------------------------------------------------------------------|
A|---------------------------------------------------------------------------|
E|---------------------------------------------------------------------------|

[REPEAT] 

e|---------------------------------------------------------------------------|
B|---3(x24)-------5(x8)-------2(x24)--0(x4)--2(x4)---3(x32)-------5(x32)-----|
G|---------------------------------------------------------------------------|
D|---------------------------------------------------------------------------|
A|---------------------------------------------------------------------------|
E|---------------------------------------------------------------------------|

[REPEAT]

e|---7(x16)-------9(x8)-------5(x16)-------7(x4)-------9(x4)-------10(x32)---|
B|---------------------------------------------------------------------------|
G|---------------------------------------------------------------------------|
D|---------------------------------------------------------------------------|
A|---------------------------------------------------------------------------|
E|---------------------------------------------------------------------------|

e|---12(x32)-----------------------------------------------------------------|
B|---------------------------------------------------------------------------|
G|---------------------------------------------------------------------------|
D|---------------------------------------------------------------------------|
A|---------------------------------------------------------------------------|
E|---------------------------------------------------------------------------|

e|---7(x4)-------9(x4)--------10(x24)-------12(x8)-------9(x24)--------------|
B|---------------------------------------------------------------------------|
G|---------------------------------------------------------------------------|
D|---------------------------------------------------------------------------|
A|---------------------------------------------------------------------------|
E|---------------------------------------------------------------------------|

e|---7(x4)-------9(x4)-------10(x32)-------12(x32)---------------------------|
B|---------------------------------------------------------------------------|
G|---------------------------------------------------------------------------|
D|---------------------------------------------------------------------------|
A|---------------------------------------------------------------------------|
E|---------------------------------------------------------------------------|

e|---5(x32)-------5(x32)-------5(x32)-------5(x32)---------------------------|
B|---------------------------------------------------------------------------|
G|---------------------------------------------------------------------------|
D|---------------------------------------------------------------------------|
A|---------------------------------------------------------------------------|
E|---------------------------------------------------------------------------|

     "Found love beyond all reason, You gave your life Your all for 
e|---5(x32)-------5(x32)-----------------------------------------------------|
B|---------------------------------------------------------------------------|
G|---------------------------------------------------------------------------|
D|---------------------------------------------------------------------------|
A|---------------------------------------------------------------------------|
E|---------------------------------------------------------------------------|

     me                   And called me Yours forever
e|---2-2-2---9-9-9-9------2-2-2---9-9-9-9------0-0-0-----9-9-9-9-9-9---------|
B|---------------------------------------------------------------------------|
G|---------------------------------------------------------------------------|
D|---------------------------------------------------------------------------|
A|---------------------------------------------------------------------------|
E|---------------------------------------------------------------------------|

e|---5-5---7-7---------------------------------------------------------------|
B|---------------------------------------------------------------------------|
G|---------------------------------------------------------------------------|
D|---------------------------------------------------------------------------|
A|---------------------------------------------------------------------------|
E|---------------------------------------------------------------------------|

     Caught in the mercy fallout   I found hope found life Found all I
e|---5(x24)-------7(x4)-------9(x4)------4(x24)-------7(x4)-------9(x4)------|
B|---------------------------------------------------------------------------|
G|---------------------------------------------------------------------------|
D|---------------------------------------------------------------------------|
A|---------------------------------------------------------------------------|
E|---------------------------------------------------------------------------|

     need                 You’re all I need
e|---2-2-2---9-9-9-9------0-0-0---9-9-9-9------2-2-2---9-9-9-9-9-9-----------|
B|---------------------------------------------------------------------------|
G|---------------------------------------------------------------------------|
D|---------------------------------------------------------------------------|
A|---------------------------------------------------------------------------|
E|---------------------------------------------------------------------------|


| /  slide up
| \  slide down
| h  hammer-on
| p  pull-off
| 
| +  harmonic
| x  Mute note
===============================================================================

If you have any comments or corrections email me at choiboi1113@gmail.com
Related for The Time Has Come tab