Song name
# A B C D E F G H I J K L M N O P Q R S T U V W X Y Z

Mcguinness Flint - When Im Dead And Gone tab

When I'm Dead And Gone
Status Quo
Famous In The Last Century 2000



E|-------------------------------------------------|
B|-------------------------------------------------|
G|-9-9-9-9-8-8*------------------------------------|
D|-9-9-9-9-9-9*-11-11------------------------------|
A|--------------------9-9-9-11-9-9-9-11-9-9-9-11-9-|
E|--------------------7-7-7-7--7-7-7-7--7-7-7-7--7-|Repeat to *


B                      E                      B
Ooo I love you baby I love you night and day
B                            E
When I leave you baby don't cry the night away
B                               E
When I die, don't you write no words upon my tomb
  B                                 E
I don't believe I want to leave an epitaph for two


B               F#
Whoa Whoa Whoa Whoa
G#m                E
When I'm dead and gone
          B               F#          B   E F#
I wanna leave some happy woman livin' on
B               F#
Whoa Whoa Whoa Whoa
G#m               E
When I'm dead and gone
         B               F#             E
I don't want nobody to mourn beside my grave



        B             E F#
I said, oh na'n'na na, 
B             E F#
oh na'n'na na
B             E F#
Oh na'n'na na 
B             E F#
oh na'n'na na



B               F#
Whoa Whoa Whoa Whoa
G#m                E
When I'm dead and gone
          B               F#          B   E F#
I wanna leave some happy woman livin' on
B               F#
Whoa Whoa Whoa Whoa
G#m               E
When I'm dead and gone
         B               F#             E F#
I don't want nobody to mourn beside my grave






Solo:

E|-----------------------------------------------------|
B|-----------------------------------------------------|
G|-/8------------------------/8-------8----------------|
D|----11-11-9----9-9----9~------11-11---9----9-9----9~-|
A|------------11-----11-------------------11-----11----|
E|-----------------------------------------------------|

Tap to rate this tab
# A B C D E F G H I J K L M N O P Q R S T U V W X Y Z