Song name
# A B C D E F G H I J K L M N O P Q R S T U V W X Y Z

Mclean Don - Every Day tab

----------------------------------------------
	    Every Day - Voxtrot
----------------------------------------------
Tabbed by: Matty C
Email: Mclugh1@comcast.net

Tuning: Standard EADGBE

Intro       Abm7  F#    Ebm   E


Verse       Abm   F#    Ebm   E

Pre-Chorus  C#m   F#    C#m   F#

             E    E     F#    F#


Chorus       B    E     Abm   E



Guitar solo

e|-----------------------7~------7~-----7-11---9-----7-|----------------------7-9---7-----7------7-------11--9-----7--|
B|-------------------7h9-----7h9----7h9-----7----7h9---|------------------7h9-----9---7h9----7h9---9p7-----7---7h9----|
G|-----8-11~----8-11-----------------------------------|---8-11~----8-11----------------------------------------------|
D|--11--------11---------------------------------------|-11-------11--------------------------------------------------|
A|-----------------------------------------------------|--------------------------------------------------------------|
E|-----------------------------------------------------|--------------------------------------------------------------|




Post Solo   C#m   F#    C#m   F#

             E    E     F#    Ebmaj

            Abm   F#    Ebm    E
             
             E    B     Abm    E


Chorus 

Chorus chords during "Cause I love you" bit


End on a B
Tap to rate this tab
# A B C D E F G H I J K L M N O P Q R S T U V W X Y Z