Song name
# A B C D E F G H I J K L M N O P Q R S T U V W X Y Z

Mclusky - Forget About Him Im Mint tab

Intro

e|----------------|
B|4---------------|
G|----------------|
D|----------------|
A|----------------|
E|----------------| x 1



Verse

e|--------------------------------|
B|4-----------5-5-2--4------------|
G|--------------------------------|
D|--------------------------------|
A|--------------------------------|
E|--------------------------------|

e|------------------------18-18-18-18-|
B|2-----------5-5-2--4----------------|
G|------------------------------------|
D|------------------------------------|
A|------------------------------------|
E|------------------------------------|

x 2



Chorus

e|--------------------------------------|
B|----------16------------17------------|
G|-15-17-18------15-17-18------15-17-18-|
D|--------------------------------------|
A|--------------------------------------|
E|--------------------------------------| x 3

e|-------------------18-18-18-18-|
B|----------16-------------------|
G|-15-17-18----------------------|
D|-------------------------------|
A|-------------------------------|
E|-------------------------------| x 1



Outro

e|--------------------------------------|
B|----------16------------17------------|
G|-15-17-18------15-17-18------15-17-18-|
D|--------------------------------------|
A|--------------------------------------|
E|--------------------------------------| x 2

e|--------------------------------------18-18-18-18-------------|
B|----------16------------17---------------------------4--------|
G|-15-17-18------15-17-18------15-17----------------------------|
D|--------------------------------------------------------------|
A|--------------------------------------------------------------|
E|--------------------------------------------------------------|  x 1



Song structure:

Intro
Verse
Chorus
Verse
Outro

Lyrics:

Everyone I leave seems to get away
and everywhere I go I want to travel by rickshaw
Thorazine given in your food will stop the headaches
but don't be fooled by what you leave me

Everything depends on the getaway
and everywhere I go I want to travel by boogie-board
Thorazine given in your food will stop the headaches
but don't be fooled by what you leave behind

Everyone I know needs to get ahead
and everywhere I go I want to travel by X-wing
Thorazine given in your food will stop the headaches
but don't be fooled by what you leave me

Everything I leave seems to get away
and everywhere I go I want to travel on my man-legs
Thorazine given in your food will stop the headaches
but don't be fooled by what you leave behind 
Tap to rate this tab
# A B C D E F G H I J K L M N O P Q R S T U V W X Y Z