Song name
# A B C D E F G H I J K L M N O P Q R S T U V W X Y Z

Mclusky - Throwing Bricks From Trains Acoustic tab

From a Acoustic Session I shamelessly bootlegged off the link

http://boxingduck.blogspot.com/2008/05/mclusky-acoustic-session-download.html

Throwing Bricks from Trains -


In my heart I'm not a Fan...

E---------------1-1-x-1-1-1-|
B---------------1-1-x-1-1-1-|
G---4-4-x-7-7-x-4-4-x-4-4-4-|
D---5-5-x-8-8-x-3-3-x-3-3-3-|
A---5-5-x-8-8-x-3-3-x-3-3-3-|
E---3-3-x-6-6-x-1-1-x-1-1-1-|

Repeat Until...

Me and my Valentine...


E---------------x-x-x-x-x-x-|
B---------------x-x-x-x-x-x-|
G---4-x-x-x-x-x-x-x-x-x-x-x-|
D---5-x-x-x-x-x-x-x-x-x-x-x-|
A---5-x-x-x-x-x-x-x-x-x-x-x-|
E---3-x-x-x-x-x-x-x-x-x-x-x-|


But In my heart I'm not a Fan...

E---------------1-1-x-1-1-1-|
B---------------1-1-x-1-1-1-|
G---4-4-x-7-7-x-4-4-x-4-4-4-|
D---5-5-x-8-8-x-3-3-x-3-3-3-|
A---5-5-x-8-8-x-3-3-x-3-3-3-|
E---3-3-x-6-6-x-1-1-x-1-1-1-|

Me and my Valentine...


E---------------x-x-x-x-x-x-|
B---------------x-x-x-x-x-x-|
G---4-x-x-x-x-x-x-x-x-x-x-x-|
D---5-x-x-x-x-x-x-x-x-x-x-x-|
A---5-x-x-x-x-x-x-x-x-x-x-x-|
E---3-x-x-x-x-x-x-x-x-x-x-x-|

But In my heart I'm not a Fan...

E---------------1-1-x-1-1-1-|
B---------------1-1-x-1-1-1-|
G---4-4-x-7-7-x-4-4-x-4-4-4-|
D---5-5-x-8-8-x-3-3-x-3-3-3-|
A---5-5-x-8-8-x-3-3-x-3-3-3-|
E---3-3-x-6-6-x-1-1-x-1-1-1-|


Corrections or Questions - TysonRprince@yahoo.com

My Youtube channel - http://www.youtube.com/TysonRprince (send me a video)
Tap to rate this tab
# A B C D E F G H I J K L M N O P Q R S T U V W X Y Z