Song name
# A B C D E F G H I J K L M N O P Q R S T U V W X Y Z

Mclusky - Rope tab

mclusky - rope
tabbed by LuckyJim (youdoittoyourself@hotmail.co.uk)


Intro/Verse
-----------

E [---------9-11-12-11-9----9-----------------8-------8-----8---------8-------8-----8-----8-----]
B [-9-11-12--------------12---12-11-9-11-12---11b13---11b13-11b13-----11b13---11b13-11b13-11b13-]
G [---------------------------------------------------------------------------------------------]
D [---------------------------------------------------------------------------------------------]
A [---------------------------------------------------------------------------------------------]
E [---------------------------------------------------------------------------------------------]


Chorus
------
                                                      [------------------------]*
E [----------------------------------------------------------------------------]
B [-----------------7-7-7-7-7-7-7-7-8-8-8-8-8-8-8-8-8-8b-8b-8b-8b-8b-8b-8b-8b9-]
G [-9-9-9-9-9-9-9-9------------------------------------------------------------]
D [----------------------------------------------------------------------------]
A [----------------------------------------------------------------------------]
E [----------------------------------------------------------------------------]
    * - gradually bend the 8 to a 9 on the B string


Outro
-----

E [---------9-11-12-11-9----9------------------]
B [-9-11-12--------------12---12-11-9-11-12-11-]
G [--------------------------------------------]
D [--------------------------------------------]
A [--------------------------------------------]
E [--------------------------------------------]
Tap to rate this tab
 
# A B C D E F G H I J K L M N O P Q R S T U V W X Y Z