Song name
# A B C D E F G H I J K L M N O P Q R S T U V W X Y Z

Mclusky - Undress For Success tab

Mclusky - Undress for Success
Guitar - Andy "Falco" Falkous
Tabbed By - Eno (FlashPRO62)
~
Key
/ = slide
~
Verse / Chorus
e|-----------------------------------|----------------------------------|
B|--6-5-4---4--------------6--6-6-6--|-6-5-4---4--------------6--6-6-6--|
G|--------6---6----6-4-5-6-----------|-------6---6----6-4-5-6-----------|
D|-----------------------------------|----------------------------------|
A|-----------------------------------|----------------------------------|
E|-----------------------------------|----------------------------------|
Repeat this through pretty much the whole song...

e|--------------|
B|--4-4/5-------|
G|--------------|This bit is played during the
D|--------------|"When I lost my teeth" and "Under exposed and dead" part.
A|--------------|
E|--------------|

e|-----------------------------------------------------|
B|-6-5-4--4-5-4---------------6-5-4---3/4/3------------|
G|-------6------4------2-2-2--------6-----------2-2-2--|
D|-----------------------------------------------------|  x2
A|-----------------------------------------------------|
E|-----------------------------------------------------|
Little Riff that starts just after Falco sings the Monsters bit after the chorus.
Tap to rate this tab
# A B C D E F G H I J K L M N O P Q R S T U V W X Y Z