Song name
# A B C D E F G H I J K L M N O P Q R S T U V W X Y Z

Mclusky - Fuck This Band tab

-------------------------------------------------------------------------------
			     F*ck This Band - Mclusky
-------------------------------------------------------------------------------

Artist: Mclusky
Album:  Do Dallas
Song:   F*ck  This Band

Tabbed by: SsPunk

Email: Lithium_monkey@hotmail.com

Tuning: Bass Standard (E A D G)

Intro, Verse, chorus, and the whole song:

G|---------------------------------|---------------------------------|
D|-----------------5---5---7---5---|-5---2---2-----------------------|
A|-3---3---5---3-------------------|-------------5---5---3---5---7---|
E|---------------------------------|---------------------------------|


Guitar part (not in the recorded song, but I like to play this)

e|-----------------3---3---5---3---|------------------------------0--|
B|-1---1---3---1-------------------|---------------------1-----------|
G|---------------------------------|-0---9---9---7---0-------2-------|
D|---------------------------------|---------------------------------|
A|---------------------------------|---------------------------------|
E|---------------------------------|---------------------------------|
Tap to rate this tab
# A B C D E F G H I J K L M N O P Q R S T U V W X Y Z