Song name
# A B C D E F G H I J K L M N O P Q R S T U V W X Y Z

Mclusky - Flysmoke tab

Help us improve GuitareTab! Take a short survey!
Mclusky-fkysmoke

one of the best songs of one of the best bands from britain in recent years

intro:

e|-----6-----6-----------------------------------------------------|
B|-----------------9-----8-----9---6-----8-----9---8-----6-8-8p6---|
G|-8-8---8-8---8-8---8-8---8-8---8---8-8---8-8---8---8-8-----------|
D|-----------------------------------------------------------------|  X2
A|-----------------------------------------------------------------|
E|-----------------------------------------------------------------|

verse:

e|-----6-----6-----------------------------------------------------|
B|-----------------9-----8-----9---6-6-6-6-6-6-6-6-8-8-8-8-8-8-8-8-|
G|-8-8---8-8---8-8---8-8---8-8---8---------------------------------|
D|-----------------------------------------------------------------|
A|-----------------------------------------------------------------|
E|-----------------------------------------------------------------|

distortion chorus thingy:

e|---------------------------------|
B|---------------------------------|
G|-8-8-8-8-8-8-8-8-7-7-7-8-8-8-7-7-|
D|---------------------------------|
A|---------------------------------|
E|---------------------------------|  repeat this till it makes sense about 5 times

then intro again once or twice

verse

then chorus thingy repeated endlessly

play this on clean guitar over the top

e|--------------------|
B|-11-9-8-6-11-11-9-8-|
G|--------------------|
D|--------------------|
A|--------------------|
E|--------------------|

After chorus end on a repeat of intro

There done didn't take long did it. Think this is about right you'll all have to work out the
rhythms yourselves. There's possibly a few more notes hidden somewhere in there but hey 
never pretended to be perfect.

thats all for now maybe some more later
take it easy
the big yellow
Related for Flysmoke tab