Song name
# A B C D E F G H I J K L M N O P Q R S T U V W X Y Z

Mclusky - Collagen Rock tab

mclusky - collagen rock
tabbed by kevin ryan (x_is_loaded@hotmail.com)


Riff 1

E [-6-7-8-9---9---7-6---6---------6-7-8-9-8-6---]
B [-------------------7-----7-7---------------7-]
G [---------------------------------------------]
D [---------------------------------------------]
A [---------------------------------------------]
E [---------------------------------------------]


Riff 2

E [-5-----5-----5-----5-----5-----5------etc--->
B [---5-4---5-4---5-4---5-4---5-4---5-4-------->
G [-------------------------------------------->
D [-------------------------------------------->
A [-------------------------------------------->
E [-------------------------------------------->
Tap to rate this tab
# A B C D E F G H I J K L M N O P Q R S T U V W X Y Z