Song name
# A B C D E F G H I J K L M N O P Q R S T U V W X Y Z

Mclusky - Gareth Brown Says tab

mclusky - gareth brown says
tabbed by kevin ryan (x_is_loaded@hotmail.com)


Riff 1 - Verse

E [--0----0----0----0----0----0--------->
B [-11---11---11---11---11---11---etc--->
G [-------------------------------------
D [-------------------------------------
A [-------------------------------------
E [-------------------------------------


Riff 2

E [-0---0---0---0---0---0---0---0---]
B [---------------------------------]
G [---9---9---9---9---9---9---7---7-]
D [---------------------------------] x4
A [---------------------------------]
E [---------------------------------]


Riff 3

E [-0---0---0---0---0---0---0---0---]
B [---8---8---8---8---8---8---7---7-]
G [---------------------------------]
D [---------------------------------] x4
A [---------------------------------]
E [---------------------------------]


first chorus, play riff 2 over first chorus, then riff 2 & 3 over second.
Tap to rate this tab
 
# A B C D E F G H I J K L M N O P Q R S T U V W X Y Z