Song name
# A B C D E F G H I J K L M N O P Q R S T U V W X Y Z

Mclusky - World Loves Us And Is Our Bitch tab

mclusky - The World Loves Us & Is Our Bitch


Intro / Chorus

E [-12----------------------------------------]
B [----13-------------------------------------]
G [-------14------12---14-14-12-14b15---14-12-]   [-14---b---15-] played on last time before verse
D [-------------------------------------------]
A [-------------------------------------------]
E [-------------------------------------------]


Verse

[-12---------x---x-x-x-x-x-x-------------------------x-x-x-x-x-x-x-x-]
[----13------x---x-x-x-x-x-x-------------------------x-x-x-x-x-x-x-x-]
[-------14---x---x-x-x-x-x-x---12---14-12-14b15-14---x-x-x-x-x-x-x-x-]
[------------x---x-x-x-x-x-x-------------------------x-x-x-x-x-x-x-x-]
[--------------------------------------------------------------------]
[--------------------------------------------------------------------]


Outro

G [-14-14-14-14---etc--->
Tap to rate this tab
 
# A B C D E F G H I J K L M N O P Q R S T U V W X Y Z