Song name
# A B C D E F G H I J K L M N O P Q R S T U V W X Y Z

Mclusky - Mi-o-mai tab

mclusky - mi-o-mai
tabbed by kevin ryan (x_is_loaded@hotmail.com)


Verse:

E [-------------------------]
B [-------------------------]
G [-7-7-7-------------------]
D [-7-7-7-7-7-7-5-5-5-7-7-7-]
A [-5-5-5-7-7-7-5-5-5-7-7-7-]
E [-------5-5-5-3-3-3-5-5-5-]


Chorus:

E [---------------------------------]    [---------------]
B [---------------------------------]    [-3---5---------]
G [---------------------------------]    [---------4---6-]
D [-5-5-5-5-5-5-5-5-7-7-7-7-7-7-7-7-]    [---------------]
A [-5-5-5-5-5-5-5-5-7-7-7-7-7-7-7-7-]    [---------------]
E [-3-3-3-3-3-3-3-3-5-5-5-5-5-5-5-5-]    [---------------]


Outro:

E [--0-------------0--------------]
B [-15------------17--------------]
G [-------------------------------]
D [-------------------------------]
A [-------------------------------]
E [-------------------------------]
Tap to rate this tab
 
# A B C D E F G H I J K L M N O P Q R S T U V W X Y Z