Song name
# A B C D E F G H I J K L M N O P Q R S T U V W X Y Z

Mclusky - She Come In Peices tab

mclusky - she come in pieces
tabbed by LuckyJim (youdoittoyourself@hotmail.co.uk)

Eb Tuning - (Eb Ab Db Gb Bb Eb)


Intro
-----

Eb [-----------------0---------------------------0-----------]
Bb [-----------------3b5r3-----------------------3b5-0-------]
Gb [---------------4-------4-3-4---------------4-----3b4-3-2-]
Db [---------------------------------------------------------]
Ab [-2---2-5---2-----------------2---2-5---2-----------------]
Eb [-0---0-3---0-----------------0---0-3---0-----------------]

Eb [------------------------15b17-15-----------------0-----------------------------]
Bb [------------------15-17--------------------------3b5r3-------------------------]
Gb [--------------/16------------------------------4-------4-3-4---4-4-4-4-4-4-3-2-]
Db [-2---2-5---2---------------------------------------------------4-4-4-4-4-4-3-2-]
Ab [-0---0-3---0---------------------2---2-5---2-------------------2-2-2-2-2-2-1-0-]
Eb [---------------------------------0---0-3---0-----------------------------------]

Eb [-----0-----------0-----------0-----------0---0---0---0-]
Bb [---3b5r3-------3b5r3-------3b5r3-------3b5-3b5-3b5-3b5-]
Gb [-4-------4---4-------4---4-------4---4-----------------]
Db [-------------------------------------------------------]
Ab [-------------------------------------------------------]
Eb [-------------------------------------------------------]


Verse
-----

Eb [-----------------0---------------------------0-----------]
Bb [-----------------3b5r3-----------------------3b5-0-------]
Gb [---------------4-------4-3-4---------------4-----3b4-3-2-]
Db [---------------------------------------------------------]
Ab [-2---2-5---2-----------------2---2-5---2-----------------]
Eb [-0---0-3---0-----------------0---0-3---0-----------------]

Eb [------------------------15b17-15-----------------0-----------------------------]
Bb [------------------15-17--------------------------3b5r3-------------------------]
Gb [--------------/16------------------------------4-------4-3-4---4-4-4-4-4-4-3-2-]
Db [-2---2-5---2---------------------------------------------------4-4-4-4-4-4-3-2-]
Ab [-0---0-3---0---------------------2---2-5---2-------------------2-2-2-2-2-2-1-0-]
Eb [---------------------------------0---0-3---0-----------------------------------]


Chorus
------

Eb [-----0-----------0-----------0-----------0---0---0---0-]
Bb [---3b5r3-------3b5r3-------3b5r3-------3b5-3b5-3b5-3b5-]
Gb [-4-------4---4-------4---4-------4---4-----------------]
Db [-------------------------------------------------------]
Ab [-------------------------------------------------------]
Eb [-------------------------------------------------------]
Tap to rate this tab
 
# A B C D E F G H I J K L M N O P Q R S T U V W X Y Z