Song name
# A B C D E F G H I J K L M N O P Q R S T U V W X Y Z

Mclusky - When They Come Tell Them No tab

mclusky - When They Come Tell Them No
Tabbed By Kevin Ryan (x_is_loaded@hotmail.com)


Song is just based round two riffs.
First is played during intro + chorus. Second is played over verses.
The Version tabbed here is of the few live tracks found on soulseek etc.
Album version is played a half step down from this so to play that
version just play riff down 1 fret or tune guitar half step to Eb...


Intro/Chorus Riff

E [-14------------------------------------------------------]
B [----12-14-14b15r14-12----12-14-14b15b14-12----12-14-(12)-]
G [----------------------13-------------------13------------]
D [---------------------------------------------------------]
A [---------------------------------------------------------]
E [---------------------------------------------------------]


Verse

E [---------------------------------]
B [---------------------------------]
G [---------8-8-8-8-9-9-9-9-9-------]
D [-9-9-9-9-8-8-8-8-9-9-9-9-9---0---]
A [-9-9-9-9-6-6-6-6-7-7-7-7-7---0---]
E [-7-7-7-7---------------------0---]
Tap to rate this tab
# A B C D E F G H I J K L M N O P Q R S T U V W X Y Z