Song name
# A B C D E F G H I J K L M N O P Q R S T U V W X Y Z

Mclusky - 1956 And All That tab

mclusky - 1956 and all that
tabbed by kevin ryan (x_is_loaded@hotmail.com)


tuning: open e (open strings tuned to e maj)
        (e b e g# b e)

slide is used throught song


intro: 

e  [-8-7-8-7->>>etc>>>----------------------------->>>etc>>>-0-]
b  [-8-7-8-7->>>etc>>>----------------------------->>>etc>>>-0-]
g# [-8-7-8-7->>>etc>>>----------------------------->>>etc>>>-0-]
e  [-8-7-8-7-8-7-8-7-8-7-8-7-8-7-8-7-8-7-8-7-8-7-8-7-8-7-8-7-0-]
b  [-8-7-8-7-8-7-8-7-8-7-8-7-8-7-8-7-8-7-8-7-8-7-8-7-8-7-8-7-0-]
e  [-8-7-8-7->>>etc>>>----------------------------->>>etc>>>-0-]


verse:

e  [-8-7-8-7-
b  [-8-7-8-7-
g# [-8-7-8-7-
e  [-8-7-8-7- >>>etc>>>
b  [-8-7-8-7-
e  [-8-7-8-7-


chours:
e  [-15-15-15-15/17-17-17/19---19-19-19-19-19-19-19\16-16-16-16/17-17-17\14---14-14-14-14-14-14-14-]
b  [-15-15-15-15/17-17-17/19---19-19-19-19-19-19-19\16-16-16-16/17-17-17\14---14-14-14-14-14-14-14-]
g# [-15-15-15-15/17-17-17/19---19-19-19-19-19-19-19\16-16-16-16/17-17-17\14---14-14-14-14-14-14-14-]
e  [-15-15-15-15/17-17-17/19---19-19-19-19-19-19-19\16-16-16-16/17-17-17\14---14-14-14-14-14-14-14-]
b  [-15-15-15-15/17-17-17/19---19-19-19-19-19-19-19\16-16-16-16/17-17-17\14---14-14-14-14-14-14-14-]
e  [-15-15-15-15/17-17-17/19---19-19-19-19-19-19-19\16-16-16-16/17-17-17\14---14-14-14-14-14-14-14-]


e  [-15-15-15-15/17-17-17/19---19-19-19-19-19-19-19---------------------------]
b  [-15-15-15-15/17-17-17/19---19-19-19-19-19-19-19---------------------------]
g# [-15-15-15-15/17-17-17/19---19-19-19-19-19-19-19---19h20-20-20-19s17-17s15-]
e  [-15-15-15-15/17-17-17/19---19-19-19-19-19-19-19---------------------------]
b  [-15-15-15-15/17-17-17/19---19-19-19-19-19-19-19---------------------------]
e  [-15-15-15-15/17-17-17/19---19-19-19-19-19-19-19---------------------------]


outro: 

e  [-8---7---20---18---]
b  [-8---7---20---18---]
g# [-8---7---20---18---]
e  [-8---7---20---18---]
b  [-8---7---20---18---]
e  [-8---7---20---18---]
Tap to rate this tab
# A B C D E F G H I J K L M N O P Q R S T U V W X Y Z