Song name
# A B C D E F G H I J K L M N O P Q R S T U V W X Y Z

Mclusky - Falco Vs The Young Canoeist tab

mclusky - falco vs the young canoeist
tabbed by kevin ryan (xisloaded@hotmail.com)



Guitar 1
--------


Intro & Verse

E [-0-0---0---0---0---0---0---0---0-]
B [-6---6---6---6---6---6---6---6---]
G [---------------------------------] play riff throughout intro and verse
D [---------------------------------]



Guitar 2
--------


Intro

E [-------------------]   [-------------------4-4-4-4-4-4-]
B [-------------------]   [-------------------7b9-7b9-7b9-]
G [-3-3-3-3-3-3-3-3-3-]   [-3-3-3-3-3-3-3-3-3-------------]
D [-3-3-3-3-3-3-3-3-3-]   [-3-3-3-3-3-3-3-3-3-------------] x3
A [-1-1-1-1-1-1-1-1-1-]   [-1-1-1-1-1-1-1-1-1-------------]
E [-------------------]   [-------------------------------]


Verse

E [-------------------4-4-4-4-4-4---------------------------------]
B [-------------------7b9-7b9-7b9---------------------------------]
G [-3-3-3-3-3-3-3-3-3--------------3-3-3-3-6--6-6---------4-4-4-4-]
D [-3-3-3-3-3-3-3-3-3--------------3-3-3-3-6--6-6-3-3-3-3-4-4-4-4-]
A [-1-1-1-1-1-1-1-1-1--------------1-1-1-1-4--4-4-3-3-3-3-2-2-2-2-]
E [-----------------------------------------------1-1-1-1---------]


Chorus

E [-------------------------------------------------------------------------------------------------]
B [----12----12----12----12----12----12----12----12----14----14----14----14----14----14----14----14-]
G [-15----15----15----15----15----15----15----15----17----17----17----17----17----17----17----17----]
D [-------------------------------------------------------------------------------------------------]
Tap to rate this tab
 
# A B C D E F G H I J K L M N O P Q R S T U V W X Y Z