Song name
# A B C D E F G H I J K L M N O P Q R S T U V W X Y Z

Mclusky - Slay tab

mclusky - slay
tabbed by kevin ryan (x_is_loaded@hotmail.com)


Tuning - EEEEEE each string is tuned up/down to the nearest E


Verse:

E [--------------------------]
E [--------------------------]
E [--------------------------]
E [--------12-----13-13-13---]
E [---10---12-----13-13-13---]
E [------0----0-0------------]


Chorus (w/slide)

E [---------------------------------------------]
E [---------------------------------------------]
E [---------------------------------------------]
E [-13-13-13-13-10-10-10-10-8-8-8-8-10-10-10-10-] x2
E [-13-13-13-13-10-10-10-10-8-8-8-8-10-10-10-10-]
E [-13-13-13-13-10-10-10-10-8-8-8-8-10-10-10-10-]

E [-10-10-10-10-5-5-5-5-6-6-6-6-6-5-5-3-3-3-3-3-6-6-6-6-5-5-5-5-5-5-5-5-]
E [-10-10-10-10-5-5-5-5-6-6-6-6-6-5-5-3-3-3-3-3-6-6-6-6-5-5-5-5-5-5-5-5-]
E [-10-10-10-10-5-5-5-5-6-6-6-6-6-5-5-3-3-3-3-3-6-6-6-6-5-5-5-5-5-5-5-5-]
E [---------------------------------------------------------------------]
E [---------------------------------------------------------------------]
E [---------------------------------------------------------------------]

during chorus just play fast tremelo picking to get it to sound right
Tap to rate this tab
# A B C D E F G H I J K L M N O P Q R S T U V W X Y Z