Guitaretab - guitar tabs
Song name
# A B C D E F G H I J K L M N O P Q R S T U V W X Y Z

Mclusky - That Man Will Not Hang tab

mclusky - that man will not hang
tabbed by - kevin ryan (

Bass Riff - Intro / Verse

G [-----------------------------------------------------------------]
D [-----------------------------------------------------------------]
A [-4-0-1-1-1-1-1-1-1-0-1-1-1-1-1-1-1-0-1-1-1-0-1-1-1-0-4-4-4-4-4-4-]
E [-----------------------------------------------------------------]

Guitar Riff
[ Tab from: ]
E [----------------------------------------------------------]
B [----------------------------------------------------------]
G [----------------------------------------------------------]
D [-------8-----------8-----------------8--------------------]
A [---8-----------8-----------------8-----------4-4-4-4v-5-6-]
E [-6---6---6---6---6---6--6--6---6---6---6---6--------------]

i'm not 100% on the guitar riff, i've listened a few times and tried a 
few different combinations and thats a s close as i've come to correct
if anyone can can correct or add to it mail me on the address above
Related for That Man Will Not Hang tab