Song name
# A B C D E F G H I J K L M N O P Q R S T U V W X Y Z

Mclusky - Rods On Crutches tab

Help us improve GuitareTab! Take a short survey!
mclusky - rods on crutches
tabbed by kevin ryan (x_is_loaded@hotmail.com)


Intro:

    B     F#        B     F#        B     F#        B
E [-----------------------------------------------------]
B [---------2-2-2-2---------2-2-2-2---------2-2-2-2---4-]
G [-4-4-4---3-3-3-3-4-4-4---3-3-3-3-4-4-4---3-3-3-3-4-4-]
D [-4-4-4-4-4-4-4-4-4-4-4-4-4-4-4-4-4-4-4-4-4-4-4-4-4-4-]
A [-2-0-2-4-4-4-4-4-2-0-2-4-4-4-4-4-2-0-2-4-4-4-4-4-0-2-]
E [---------2-2-2-2---------2-2-2-2---------2-2-2-2-----]



Verse:

    B     F#        B     F#        B     F#        B
E [------------------------------------------------------------------]
B [---------2-2-2-2---------2-2-2-2---------2-2-2-2---4---x---x---x--]
G [-4-4-4---3-3-3-3-4-4-4---3-3-3-3-4-4-4---3-3-3-3-4-4---x---x---x--]
D [-4-4-4-4-4-4-4-4-4-4-4-4-4-4-4-4-4-4-4-4-4-4-4-4-4-4---x---x---x--]
A [-2-0-2-4-4-4-4-4-2-0-2-4-4-4-4-4-2-0-2-4-4-4-4-4-0-2---x---x---x--]
E [---------2-2-2-2---------2-2-2-2---------2-2-2-2------------------]


Lead - played over verses other than first

E [---------2---2---------------------------------------------------]
B [-4---4-----------4---4---2---2---4---4---2---2-----4---4---4---4-]
G [---4---4---4---4---4---4---4---4---4---4---4---4-4---4---4---4---]
D [-----------------------------------------------------------------]
A [-----------------------------------------------------------------]
E [-----------------------------------------------------------------]



Bridge:

E [-2-----2-----2-----2-----2-----2-----2-----]
B [-4-----2-----4-----2-----4-----2-----4-----]
G [-4-----3-----4-----3-----4-----3-----4-----]
D [-4-----4-----4-----4-----4-----4-----4-----]
A [-2-----4-----2-----4-----2-----4-----2-----]
E [-------2-----------2-----------2-----------]
Related for Rods On Crutches tab