Song name
# A B C D E F G H I J K L M N O P Q R S T U V W X Y Z

Mclusky - Without Msg I Am Nothing tab

mclusky - without msg i am nothing
tabbed by kevin ryan (x_is_loaded@hotmail.com)


Intro / Verse

E [-----0-3---------0-3-----]
B [-0-4-----4-----4-------4-]
G [-------------------------]
D [-------------------------]
A [-------------------------]
E [-------------------------]


Chorus

E [-----0-3-------0-3-0---------0-3-]
B [-0-4-----4---4-------4---0-4-----]
G [---------------------------------]
D [---------------------------------]
A [---------------------------------]
E [---------------------------------]


Bridge

E [-11------9-----11------9-----11------9-----11------9-]
B [----10-----7------10-----7------10-----7------10-----]
G [-------8-----8-------8-----8-------8-----8-------8---]
D [-----------------------------------------------------]
A [-----------------------------------------------------]
E [-----------------------------------------------------]

E [---------------------------------------0--0-----0--0-----]
B [-8---11---12---9---8---11---12---9-----0--0-----0--0-----]
G [---------------------------------------0--0-----0--0-----]
D [---------------------------------------0--0-----0--0-----]
A [---------------------------------------0--0-----0--0-----]
E [---------------------------------------0--0-----0--0-----]
Tap to rate this tab
# A B C D E F G H I J K L M N O P Q R S T U V W X Y Z