Song name
# A B C D E F G H I J K L M N O P Q R S T U V W X Y Z

Mclusky - Dethink To Survive tab

Help us improve GuitareTab! Take a short survey!
mclusky - dethink to survive
tabbed by kevin ryan (x_is_loaded@hotmail.com)


Verse:

E [-----------------------------------------]
B [-----------------------------------------]
G [-9---x-5-5-x-7-7-x-9-9-x-5-5-5-5-5-5-5-5-]
D [-9---x-5-5-x-7-7-x-9-9-x-5-5-5-5-5-5-5-5-]
A [-7---x-3-3-x-5-5-x-7-7-x-3-3-3-3-3-3-3-3-]
E [-----------------------------------------]


Chorus:

E [-----0-----0-----0-----0---|
B [-15b---15b---15b-----------|cont.>
G [---------------------------|
D [---------------------------|
A [---------------------------|
E [---------------------------|

Gradually bend 15th up to whole note
Related for Dethink To Survive tab