Song name
# A B C D E F G H I J K L M N O P Q R S T U V W X Y Z

Mclusky - Alan Is A Cowboy Killer tab

mclusky - alan is a cowboy killer


Verse
-----

Bass

G [----------------------------]
D [----------------------------]
A [-7---------------7----------]
E [---------5----------------5-]

Guitar - feedback



Chorus
------

Guitar (tremelo pick)

E [-0-------0-------0-----------0---0----------0--------0-------0-----]
B [-2-------0-------5-----------3---2----------0--------5-------7-----]
G [-------------------------------------------------------------------]
D [-------------------------------------------------------------------]
A [-------------------------------------------------------------------]
E [-------------------------------------------------------------------]

E [--0------0----0-----0----0----0-----]
B [-10------9---10-----9---10---12-----]
G [------------------------------------]
D [------------------------------------]
A [------------------------------------]
E [------------------------------------]

E [--0-0-----0-----0-----]
B [-10-9-----7-----5-----]
G [----------------------]
D [----------------------]
A [----------------------]
E [----------------------]

Thats about it, bass only verse & guitar only chorus.
Tap to rate this tab
# A B C D E F G H I J K L M N O P Q R S T U V W X Y Z