Song name
# A B C D E F G H I J K L M N O P Q R S T U V W X Y Z

Md 45 - Fight Hate tab

                                FIGHT HATE
                                   MD45
                    (From The 2004 Album The Carving)


Transcribed by Jonathan Casper (confinedforever)

Gtr 1 & 2 - Standard Tuning - (E A D G B E)

HERE IT IS SO YA ENJOY - PLEASE RATE!!

Riff 1
eb|------------------|
Bb|------------------|
Gb|------------------|
Db|------------------|
Ab|---8/9-8/9-7--5-4-|
Eb|-0-6/7-6/7-5--3-2-|
    *
   "Fight, something's different..."


Riff 2 (Play 2x)
eb|-----------------------------|
Bb|-----------------------------|
Gb|-----------------------------|
Db|----5~---7-5---7/8-7---5-7-5-|
Ab|-/7----7-----7-------7-------|
Eb|-----------------------------|
   "I guess hate is dead..."
eb|-----------------------------------------|
Bb|-----------------------------------------|
Gb|-----------------------------------------|
Db|---------7p5------------------7p5--------|
Ab|-5h7---------5h7-xxx--5h7---------5h7-xx-|
Eb|-----5h7---------xxx------5h7---------xx-|



Riff 2a                        x3
eb|-----------------------------|
Bb|-----------------------------|
Gb|-----------------------------|
Db|----5~---7-5---7/8-7---5-7-5-|
Ab|-/7----7-----7-------7-------|
Eb|-----------------------------|
   "It's great to be..."
eb|-----------------------|
Bb|-----------------------|
Gb|-----------------------|
Db|-9---------------------|
Ab|-7--9-8-7----5-7-5-3//-|
Eb|----7-6-5----3-5-3-1//-|
   "...say..."



Play Riff 1   "Fight, something's different..."
Play Riff 2   "Hate's made obsolete..."
Play Riff 2a  "It's no longer cool..."
Play Riff 1   "Fight, something's different..."


Riff 3
Guitar 1
eb|-------------------------------------|
Bb|-------------------------------------|
Gb|-------------------------------------|
Db|-------------------------------------|
Ab|-2--------xxxxxxxx-2--------xxxxxxxx-|
Eb|-0--------xxxxxxxx-0--------xxxxxxxx-|

eb|-----------------------------|
Bb|-----------------------------|
Gb|-----------------------------|
Db|-----------------------------|
Ab|-3-------------3-------------|
Eb|-1----11111111-1----11111111-|
         ********      ********
eb|-------------------------------------|
Bb|-------------------------------------|
Gb|-------------------------------------|
Db|-------------------------------------|
Ab|-2--------xxxxxxxx-2--------xxxxxxxx-|
Eb|-0--------xxxxxxxx-0--------xxxxxxxx-|

eb|-------------------|
Bb|-------------------|
Gb|-------------------|
Db|-------------------|
Ab|-2--------xxxxxxxx-|
Eb|-0--------xxxxxxxx-|

eb|-----------------------------|
Bb|-----------------------------|
Gb|-----------------------------|
Db|-----------------------------|
Ab|-3-------------3-------------|
Eb|-1----11111111-1----11111111-|
         ********      ******** 
eb|---------------|
Bb|---------------|
Gb|---------------|
Db|---------------|
Ab|-2--------(2)--|
Eb|-0--------(0)--|


Guitar 2 (Some effect, possibly flange)
eb|-------------------------------------------------|
Bb|---------0-3h5-3-0---------------0-3h5-3-0-------|
Gb|-------1-----------2-1---------1-----------2-1---|
Db|-----2-----------------2-----2-----------------2-|
Ab|---2-----------------------2---------------------|
Eb|-0-----------------------0-----------------------|

eb|-------------------------|
Bb|-------------------------|
Gb|-------2-1---------2-1---|
Db|-----3-----3-----3-----3-|
Ab|---3-----------3---------|
Eb|-1-----------1-----------|

eb|-------------------------------------------------|
Bb|---------0-3h5-3-0---------------0-3h5-3-0-------|
Gb|-------1-----------2-1---------1-----------2-1---|
Db|-----2-----------------2-----2-----------------2-|
Ab|---2-----------------------2---------------------|
Eb|-0-----------------------0-----------------------|

eb|-------------------------|
Bb|---------0-3h5-3-0-------|
Gb|-------1-----------2-1---|
Db|-----2-----------------2-|
Ab|---2---------------------|
Eb|-0-----------------------|

eb|-------------------------|
Bb|-------------------------|
Gb|-------2-1---------2-1---|
Db|-----3-----3-----3-----3-|
Ab|---3-----------3---------|
Eb|-1-----------1-----------|

eb|-------------------------|
Bb|---------0-3h5-3-0-------|
Gb|-------1-----------2-1---|
Db|-----2-----------------2-|
Ab|---2---------------------|
Eb|-0-----------------------|




Riff 4
eb|-------------------------------|
Bb|-------------------------------|
Gb|-------------------------------|
Db|-9--------------9--------------|
Ab|-7-9-8-7-xxxxxx-7-9-8-7-xxxxxx-|
Eb|---7-6-5-xxxxxx---7-6-5-xxxxxx-|
   "Hate messed with the best..."
eb|-------------------------------|
Bb|-------------------------------|
Gb|-------------------------------|
Db|-9-----------------------------|
Ab|-7-9-8-7-xxxxxx-5-7-5-3-xxxxxx-|
Eb|---7-6-5-xxxxxx-3-5-3-1-xxxxxx-|
   "Hate don't walk..."

Final time:
eb|-------------------------|
Bb|-------------------------|
Gb|-------------------------|
Db|-9-----------------------|
Ab|-7-9-8-7-xxxxxx-5-7-5-3--|
Eb|---7-6-5-xxxxxx-3-5-3-1--|
   "Hate's got no place..."


Play Riff 1   "Fight, something's different..."


Ending:
eb|---------------------|
Bb|---------------------|
Gb|---------------------|
Db|------------------9\-|
Ab|---8/9-8/9-7--5-4-7\-|
Eb|-0-6/7-6/7-5--3-2----|
    *
  "...something's going to change..."

(Some effect, possibly flange)
eb|------0--|
Bb|-----0---|
Gb|----1----|
Db|---2-----|
Ab|--2------|
Eb|-0-------|



Notation:

10^        = bend a quarter step.
10b11      = bend a half step.
10b12      = bend a full step.
10b12r10   = bend and release.
[10]12     = pre-bend.
[10]12r10  = pre-bend and release.
{14}       = pick the 14th fret while holding the most 
             previous bend.
<17>       = touch the string above the 17th fret while 
             previous note(s) is(are) still ringing.

10b13*     = tremolo bar bend, from the 10th fret to the 13th fret.
7d4*       = tremolo bar dive, from the 7th fret to the 4th fret. 
12~*       = tremolo bar vibrato.

x   =  mute with fret-hand
*   =  palm mute
X\\ =  pick slide
h   =  hammer-on
p   =  pull-off
~   =  vibrato
t   =  finger tap
/   =  slide up
\   =  slide down
h.  =  natural harmonics
a   =  artificial harmonics
(9) =  ghost note
tm  =  trem picking
tr  =  trill
Tap to rate this tab
 
# A B C D E F G H I J K L M N O P Q R S T U V W X Y Z