Song name
# A B C D E F G H I J K L M N O P Q R S T U V W X Y Z

Md 45 - My Town tab

                                MY  TOWN
                                  MD45
                   (From The 2004 Album The Carving)


Transcribed by Jonathan Casper (confinedforever)

Gtr 1 & 2 - Standard Tuning - (E A D G B E)





Riff 1
eb|-------------------|
Bb|-------------------|
Gb|-------------------|
Db|-------------------|
Ab|-2----5----7----8--|
Eb|-0----3----5----6--|


Riff 2
eb|------------------------------|
Bb|------------------------------|
Gb|------------------------------|
Db|------------------------------|
Ab|-------7/8-8-8--------7/8-8-8-|
Eb|-0-5-0-5/6-6-6--0-5-0-5/6-6-6-|
    * * *          * * *
  "New York City, Hollywood..."

Final time:
eb|-------------------------------------|
Bb|-------------------------------------|
Gb|-------------------------------------|
Db|-------------------------------------|
Ab|-------7/8-8-8--------7/8-8-8--------|
Eb|-0-5-0-5/6-6-6--0-5-0-5/6-6-6--0-5-0-|
    * * *          * * *          * * *
   "...Denver, Seattle..."


Play Riff 1   "Tonight we stole..."
Play Riff 2   "Cleveland, Charlotte..."
Play Riff 1   "Tonight we stole..."


Riff 3
eb|---------------------------------|
Bb|---------------------------------|
Gb|---------------------------------|
Db|---------5---------------5-------| --|
Ab|---7p5-x---x-5h7-x-7p5-x---x-5h7-|   |
Eb|-0-------------------------------|   |
                                        |
eb|-----------------------------|       |--> Play 4x
Bb|-----------------------------|       |
Gb|-----------------------------|       |
Db|-------5---------------------| ------|
Ab|-7p5-x---x-5h7-x-7p5-x-5p4-x-|
Eb|-----------------------------|

eb|---------------------------------|
Bb|---------------------------------|
Gb|---------------------------------|
Db|---------------------------------|
Ab|---5p4-x-4p3-x-3p2-x-2p1-0-----2-|
Eb|-0-------------------------3-2-0-|
                            * * *

Play Riff 2  "Nashville, Houston..."
Play Riff 1  "Tonight we stole..."
Play Riff 2

Ending:
eb|---------------------------------------|
Bb|---------------------------------------|
Gb|---------------------------------------|
Db|---------------------------------------|
Ab|-------7/8-8-8--------7/8-8-8--------2-|
Eb|-0-5-0-5/6-6-6--0-5-0-5/6-6-6--0-5-0-0-|
    * * *          * * *          * * *


Notation:

10^        = bend a quarter step.
10b11      = bend a half step.
10b12      = bend a full step.
10b12r10   = bend and release.
[10]12     = pre-bend.
[10]12r10  = pre-bend and release.
{14}       = pick the 14th fret while holding the most 
             previous bend.
<17>       = touch the string above the 17th fret while 
             previous note(s) is(are) still ringing.

10b13*     = tremolo bar bend, from the 10th fret to the 13th fret.
7d4*       = tremolo bar dive, from the 7th fret to the 4th fret. 
12~*       = tremolo bar vibrato.

x   =  mute with fret-hand
*   =  palm mute
X\\ =  pick slide
h   =  hammer-on
p   =  pull-off
~   =  vibrato
t   =  finger tap
/   =  slide up
\   =  slide down
h.  =  natural harmonics
a   =  artificial harmonics
(9) =  ghost note
tm  =  trem picking
tr  =  trill
Tap to rate this tab
# A B C D E F G H I J K L M N O P Q R S T U V W X Y Z