Song name
# A B C D E F G H I J K L M N O P Q R S T U V W X Y Z

Md 45 - Hells Motel tab

                               HELL'S MOTEL
                                   MD45
                    (From The 2004 Album The Carving)


Transcribed by Jonathan Casper (confinedforever)

Gtr 1 & 2 - Standard Tuning - (E A D G B E)

I DID THE BEST I COULD SO YA ENJOY - PLEASE RATE!!

Intro:
eb|-----|
Bb|-----|
Gb|-----|
Db|--9--|
Ab|--7--|
Eb|--0--|

eb|-----------------------------------------|
Bb|-----------------------------------------|
Gb|-------7-----------5------------7--------|
Db|-9-9-7-5-7-6-5-5---3------9-9-7-5-7-6-5--|
Ab|-7-7-5---5-4-3-3-0---5-4--7-7-5---5-4-3--|
Eb|---------------------3-2-----------------|
        *   * *     *   * *      *   * *
eb|-----------------------------------------------|
Bb|-----------------------------------------------|
Gb|-------7-----------5------------7--------------|
Db|-9-9-7-5-7-6-5-5---3------9-9-7-5-7-6-5------9-|
Ab|-7-7-5---5-4-3-3-0---5-4--7-7-5---5-4-3------7-|
Eb|---------------------3-2---------------------0-|
        *   * *     *   * *      *   * *


Riff 1
eb|---------------------------------|
Bb|---------------------------------|
Gb|---------------------------------|
Db|---------------------------------|
Ab|---------------------------------|
Eb|-0000000-0000000-0000000-0000000-|
    ******* ******* ******* *******
   "An old man..."
eb|---------------------------------|
Bb|---------------------------------|
Gb|---------------------------------|
Db|---------------------------------|
Ab|---------------------------------|
Eb|-0000000-0000000-0000000-0000000-|
    ******* ******* ******* *******
   "...from his hand..."
eb|---------------------------------|
Bb|---------------------------------|
Gb|---------------------------------|
Db|---------------------------------|
Ab|---------------------------------|
Eb|-1111111-1111111-1111111-1111111-|
    ******* ******* ******* *******
   "Not like an old..."
eb|---------------------------------|
Bb|---------------------------------|
Gb|---------------------------------|
Db|---------------------------------|
Ab|---------------------------------|
Eb|-0000000-0000000-0000000-0000000-|
    ******* ******* ******* *******
   "...forever..."



Riff 2
eb|-------------------------|
Bb|-------------------------|
Gb|-------------------------|
Db|-5-2-5-2-5-2-5-2-5-2-5-2-|
Ab|-3-0-3-0-3-0-3-0-3-0-3-0-|
Eb|-------------------------|
   "Hoping mistakes..."
eb|---------------------------------|
Bb|---------------------------------|
Gb|---------------------------------|
Db|---------------------------------|
Ab|---------------------------------|
Eb|-0000000-0000000-0000000-0000000-|
    ******* ******* ******* *******
  "But no surprise..."



Riff 3
eb|-------------------------|
Bb|-------------------------|
Gb|-------7-----------5-----|
Db|-9-9-7-5-7-6-5-5---3-----|
Ab|-7-7-5---5-4-3-3-0---5-4-|
Eb|---------------------3-2-|
                    *   * *
   "...motel..."
eb|----------------------------------------|
Bb|----------------------------------------|
Gb|-------7--------------------------------|
Db|-9-9-7-5-7-6-4/5-5-5--5-5--4/5-5-5--5-5-|
Ab|-7-7-5---5-4-2/3-3-3--3-3--2/3-3-3--3-3-|
Eb|----------------------------------------|




Riff 4                              x4
eb|----------------------------------|
Bb|----------------------------------|
Gb|----------------------------------|
Db|-9-9-9-11-9-9-12--9-9-9-11-9-9-12-|
Ab|-7-7-7--7-7-7--7--7-7-7--7-7-7--7-|
Eb|----------------------------------|



Riff 5
Guitar 1
eb|------------------------------------------|
Bb|------------------------------------------|
Gb|------------------------------------------|
Db|-9----7----5----2----3----2---------------|
Ab|-7----5----3----0----1----0----2--3--4--5-|
Eb|-------------------------------0--1--2--3-|
    "Lord, please spread my wings..."

Guitar 2
eb|---------------------------------------------------|
Bb|-12~----10~----8~----5~----6~----3~----5~-6~-7~-8~-|
Gb|---------------------------------------------------|
Db|---------------------------------------------------|
Ab|---------------------------------------------------|
Eb|---------------------------------------------------|



Riff 4a
Guitar 1                            x4
eb|----------------------------------|
Bb|----------------------------------|
Gb|----------------------------------|
Db|-9-9-9-11-9-9-12--9-9-9-11-9-9-12-|
Ab|-7-7-7--7-7-7--7--7-7-7--7-7-7--7-|
Eb|----------------------------------|

Guitar 2                                           x2
eb|-------12-12-------12-12-------12-12-------12-12-|
Bb|-------12-12-------12-12-------12-12-------12-12-|
Gb|-12h13-------12h13-------12h13-------12h13-------|
Db|-------------------------------------------------|
Ab|-------------------------------------------------|
Eb|-------------------------------------------------|

eb|-----------------------|
Bb|-----------------------|
Gb|-13~~--12~~--11~~\\\\--|
Db|-----------------------|
Ab|-----------------------|
Eb|-----------------------|



Play Riff 1   "Never talks about..."
Play Riff 2   "Accepting the new..."
Play Riff 3   "...motel..."
Play Riff 4a
Play Riff 1   "And tonight he'll..."
Play Riff 2   "Tears for the..."


Riff 3a                    x3
eb|-------------------------|-----------------|
Bb|-------------------------|-----------------|
Gb|-------7-----------5-----|--------7--------|
Db|-9-9-7-5-7-6-5-5---3-----|--9-9-7-5-7-6-5--|
Ab|-7-7-5---5-4-3-3-0---5-4-|--7-7-5---5-4-3--|
Eb|---------------------3-2-|-----------------|
        *   * *     *   * *        *   * *
   "...motel..."



Ending:
eb|----------------------------------|
Bb|----------------------------------|
Gb|----------------------------------|
Db|-9-9-9-11-9-9-12--9-9-9-11-9-9-12-|
Ab|-7-7-7--7-7-7--7--7-7-7--7-7-7--7-|
Eb|----------------------------------|

Final time:
eb|----------------------|
Bb|----------------------|
Gb|----------------------|
Db|---------12-----------|
Ab|-7--------7--------2--|
Eb|-0--------0--------0--|


Ending solo:
eb|------------12----------------------------|
Bb|---------12----12-15b17~--12-15p12--------|
Gb|--14b16~---------------------------14b16~-|
Db|------------------------------------------|
Ab|------------------------------------------|
Eb|------------------------------------------|
                                    x4
eb|----------------------------------|
Bb|-12-15p12-15b17~--12-15p12--------|
Gb|---------------------------14b16~-|
Db|----------------------------------|
Ab|----------------------------------|
Eb|----------------------------------|
                                                       x2
eb|-----------------------------------------------------|
Bb|-15p12-----12-15p12-----12-15p12-----12-15p12-----12-|
Gb|------14b16--------14b16--------14b16--------14b16---|
Db|-----------------------------------------------------|
Ab|-----------------------------------------------------|
Eb|-----------------------------------------------------|

eb|-----------------------------------------------------|
Bb|-15p12--12-15p12--12-15p12-15p12--12-15p12--12-15p12-|
Gb|------14--------14--------------14--------14---------|
Db|-----------------------------------------------------|
Ab|-----------------------------------------------------|
Eb|-----------------------------------------------------|

eb|-----------------------------------------------------|
Bb|-15p12--12-15p12--12-15p12-15p12--12-15p12--12-15p12-|
Gb|------14--------14--------------14--------14---------|
Db|-----------------------------------------------------|
Ab|-----------------------------------------------------|
Eb|-----------------------------------------------------|

eb|----------------------------------------------------------|
Bb|-15b17~~----15b17-15b17-15b17-15b17-15b17-15b17-15b17r15\-|
Gb|----------------------------------------------------------|
Db|----------------------------------------------------------|
Ab|----------------------------------------------------------|
Eb|----------------------------------------------------------|

End Solo



Notation:

10^        = bend a quarter step.
10b11      = bend a half step.
10b12      = bend a full step.
10b12r10   = bend and release.
[10]12     = pre-bend.
[10]12r10  = pre-bend and release.
{14}       = pick the 14th fret while holding the most 
             previous bend.
<17>       = touch the string above the 17th fret while 
             previous note(s) is(are) still ringing.

10b13*     = tremolo bar bend, from the 10th fret to the 13th fret.
7d4*       = tremolo bar dive, from the 7th fret to the 4th fret. 
12~*       = tremolo bar vibrato.

x   =  mute with fret-hand
*   =  palm mute
X\\ =  pick slide
h   =  hammer-on
p   =  pull-off
~   =  vibrato
t   =  finger tap
/   =  slide up
\   =  slide down
h.  =  natural harmonics
a   =  artificial harmonics
(9) =  ghost note
tm  =  trem picking
tr  =  trill
Tap to rate this tab
# A B C D E F G H I J K L M N O P Q R S T U V W X Y Z