Song name
# A B C D E F G H I J K L M N O P Q R S T U V W X Y Z

Md 45 - Designer Behavior tab

                             DESIGNER BEHAVIOR
                                   MD45
                    (From The 2004 Album The Carving)


Transcribed by Jonathan Casper (confinedforever)

Gtr 1 & 2 - Standard Tuning - (E A D G B E)



Riff 1
eb|---------------------------------|
Bb|---------------------------------|
Gb|---------------------------------|
Db|-8/9-9-8/9-9-8/9-9-8/9-9---------|
Ab|-6/7-7-6/7-7-6/7-7-6/7-7-7-6-5-4-|
Eb|---------------------------------|
                            * * * *
                   "Don't want to..."
eb|---------------------------------|
Bb|---------------------------------|
Gb|---------------------------------|
Db|-8/9-9-8/9-9-8/9-9-8/9-9---------|
Ab|-6/7-7-6/7-7-6/7-7-6/7-7-7-6-5-4-|
Eb|---------------------------------|
                            * * * *
                   "Don't want to..."
eb|---------------------------------|
Bb|---------------------------------|
Gb|---------------------------------|
Db|-8/9-9-8/9-9-8/9-9-8/9-9---------|
Ab|-6/7-7-6/7-7-6/7-7-6/7-7-7-6-5-4-|
Eb|---------------------------------|
                            * * * *
                   "Don't want to..."
eb|---------------------------------|
Bb|---------------------------------|
Gb|---------------------------------|
Db|-8/9-9-9---------8/9-9-9---------|
Ab|-6/7-7-7-7-6-5-4-6/7-7-7-7-6-5-4-|
Eb|---------------------------------|
            * * * *         * * * *
                   "Don't want to..."


Riff 2
eb|-------------------------------|
Bb|-------------------------------|
Gb|-------------------------------|
Db|-------------------------------|
Ab|-2-3-4-2----2-3-4-2----2-4-2---|
Eb|----------4----------4-------4-|
    * * *    * * * *    * * * * *
         "Remember the 'Stepford Wives'?"


Play Riff 1
Play Riff 2   "Remember the 'Stepword Wives'?"
Play Riff 1


Riff 3
eb|-------------------------------------|
Bb|-------------------------------------|
Gb|-------------------------------------|
Db|-------------------------------------|
Ab|-2--------2-2--------2-2--------2-2--|
Eb|-0--------0-0--------0-0--------0-0--|




Riff 1a (Solo Rhythm)
eb|-------------------------------|
Bb|-------------------------------|
Gb|-----------------------------7-|
Db|-8/9-9-8/9-9-8/9-9-8/9-9-8/9-5-|
Ab|-6/7-7-6/7-7-6/7-7-6/7-7-6/7---|
Eb|-------------------------------|

eb|-------------------------------|
Bb|-------------------------------|
Gb|-----------------------------9-|
Db|-8/9-9-8/9-9-8/9-9-8/9-9-8/9-7-|
Ab|-6/7-7-6/7-7-6/7-7-6/7-7-6/7---|
Eb|-------------------------------|

eb|--------------------------------|
Bb|--------------------------------|
Gb|-----------------------------10-|
Db|-8/9-9-8/9-9-8/9-9-8/9-9-8/9--8-|
Ab|-6/7-7-6/7-7-6/7-7-6/7-7-6/7----|
Eb|--------------------------------|

eb|-------------------------------|
Bb|-------------------------------|
Gb|-------------------------------|
Db|-8/9-9---------8/9-9-----------|
Ab|-6/7-7-5-7-6-5-6/7-7-5-7-6-5-4-|
Eb|-------------------------------|
          * * * *       * * * * *


Solo                                       x3  
eb|--------12------------12------------12---|
Bb|------12--15~-------12--15~-------12--15-|
Gb|-14b16---------14b16---------14b16-------|
Db|-----------------------------------------|
Ab|-----------------------------------------|
Eb|-----------------------------------------|

eb|--------12------------12-------------------|
Bb|------12--15~-------12--15~-------12-15-12-|
Gb|-14b16---------14b16---------14b16---------|
Db|-------------------------------------------|
Ab|-------------------------------------------|
Eb|-------------------------------------------|
                                                  x4
eb|------------------------------------------------|
Bb|-12~----12-12~-----12-12~-----12----------------|
Gb|-12~----12-12~-----12-12~-----12----15----14----|
Db|-----14---------14---------14----14----14----14-|
Ab|------------------------------------------------|
Eb|------------------------------------------------|

                                           x3  
eb|--------12------------12------------12---|
Bb|------12--15~-------12--15~-------12--15-|
Gb|-14b16---------14b16---------14b16-------|
Db|-----------------------------------------|
Ab|-----------------------------------------|
Eb|-----------------------------------------|

eb|--------12------------12-------------------|
Bb|------12--15~-------12--15~-------12-15-12-|
Gb|-14b16---------14b16---------14b16---------|
Db|-------------------------------------------|
Ab|-------------------------------------------|
Eb|-------------------------------------------|

                                                  x3
eb|------------------------------------------------|
Bb|-12~----12-12~-----12-12~-----12----------------|
Gb|-12~----12-12~-----12-12~-----12----15----14----|
Db|-----14---------14---------14----14----14----14-|
Ab|------------------------------------------------|
Eb|------------------------------------------------|

eb|------------------------------------|
Bb|------------------------------------|
Gb|-15--14--15--14--15--14--15--14...--|
Db|---14--14--14--14--14--14--14-------|
Ab|------------------------------------|
Eb|------------------------------------|

End Solo


Play Riff 2   "Don't want to talk about it..."
Play Riff 1   "Remember 'Ozzy and Harriet'?

Final chord:
eb|-----|
Bb|-----|
Gb|-----|
Db|-----|
Ab|--2--|
Eb|--0--|


Notation:

10^        = bend a quarter step.
10b11      = bend a half step.
10b12      = bend a full step.
10b12r10   = bend and release.
[10]12     = pre-bend.
[10]12r10  = pre-bend and release.
{14}       = pick the 14th fret while holding the most 
             previous bend.
<17>       = touch the string above the 17th fret while 
             previous note(s) is(are) still ringing.

10b13*     = tremolo bar bend, from the 10th fret to the 13th fret.
7d4*       = tremolo bar dive, from the 7th fret to the 4th fret. 
12~*       = tremolo bar vibrato.

x   =  mute with fret-hand
*   =  palm mute
X\\ =  pick slide
h   =  hammer-on
p   =  pull-off
~   =  vibrato
t   =  finger tap
/   =  slide up
\   =  slide down
h.  =  natural harmonics
a   =  artificial harmonics
(9) =  ghost note
tm  =  trem picking
tr  =  trill
Tap to rate this tab
 
# A B C D E F G H I J K L M N O P Q R S T U V W X Y Z