Song name
# A B C D E F G H I J K L M N O P Q R S T U V W X Y Z

Mdc - I Hate Work tab

song: i hate work
by: MDC

verse
E---------------------|
B---------------------|
G---------------------|4x
D--11111111--9-9-9-9--|
A---9-9-9-9--7-7-7-7--|
E---------------------|

chorus
E---------------------|
B---------------------|
G---------------------|4x
D-----------7-7--5-5--|
A--7-7-7-7--5-5--3-3--|
E--5-5-5-5------------|

this is the whole song. its short but its good.
just play these two riffs over and over again.
make it fast like typical mdc shit.
Tap to rate this tab
# A B C D E F G H I J K L M N O P Q R S T U V W X Y Z