Song name
# A B C D E F G H I J K L M N O P Q R S T U V W X Y Z

Mdc - Multi Death Corporation tab

song: multi death corporation
by: MDC

verse 1
E--------------|
B--------------|
G--------------|4x
D--9999-77-----|
A--7777-55-77--|
E----------55--|

chorus
E-------------------------------------------------|
B-------------------------------------------------|
G-------------------------------------------------|2x
D------9999------1212-1111-------9999-------------|
A-2222-7777-7777-1010--9-9--2222-7777-7777-55-44--|
E-0000------5555------------0000------5555-33-22--|

verse 2
E--------------|
B--------------|
G--------------|4x
D-------77-----|
A--2222-55-77--|
E--0000----55--|

bridge
E--------------------|
B--------------------|
G--------------------|
D-----------7-----9--|
A--2-----5--5--7--7--|
E--0-----3-----5-----|

E-----------------------------------|
B-----------------------------------|
G-----------------------------------|
D---------------------7777----9999--|
A--55-2222-55-2222-55-5555-55-7777--|
E--33-0000-33-0000-33------33-------|

E--------------------------------------|
B--------------------------------------|
G--------------------------------------|
D-------------------9-10-12----9-10-7--|
A--55-2222-55-2222--7--8-10----7--8-5--|
E--33-0000-33-0000---------------------|


this is pretty much the whole song. sorry i dont have the timing
or anything like that. all i know is its really fast, like probably MDCs fastest song. i 
its a little confusing because of all the cords and you have to change up so quick so 
it down good, then you can try to play it at the speed of light. good luck
Tap to rate this tab
# A B C D E F G H I J K L M N O P Q R S T U V W X Y Z